Oops, an error
Loading. Please wait.

Hablando De Anarquismo Bass

40 views 1 this week
no commentswrite comment
1 2 3 4 5
3 more votes to show rating
add to favorites
launch autoscroll
font size
0
reset
guitar tuner
×
Best way to learn
"Hablando De Anarquismo"
Autoscroll
slow
fast
+/-
esc
set tempo
stop
 Intro:

 G-------------------------
 D------------------------- x8
 A-------------------------
 E---0-0-4-44-33-4-3-11----

 Variación intro: esto se toca el séptimo tiempo de la intro:
 
 G-------------------------
 D-------------------------
 A-------------------------
 E---0-0-4-44-333-444------

 Verso: (Cuando hablamos de anarquismo...)

 G-------------------------
 D------------------------- x4
 A---7-777777-77-55-7------
 E-------------------------

 Estribillo: (Igualdad y oportunidades...)

 G-----------------------------------
 D----------------------------------- x2
 A---7-777777-55-77------------------
 E------------------5-555555-33-55---
 
 Verso x4 

 Estribillo x2
 
 Verso x4

 Estribillo x2
 
 Variación estribillo: ( Sin nombres ni verdades...)
 
 G--------------------------------------
 D-------------------------------------- x2
 A---7-777777-55-77
Suggest correction
Give kudos to tab author, rate the tab!
1 2 3 4 5
comments
print report bad tab
guest
You may want to rate the tab now too:
select rating
Wanna post a correction for this tab? Suggest correction