Oops, an error
Loading. Please wait.

Hoy Como Ayer Bass

22 views 1 this week
no commentswrite comment
1 2 3 4 5
3 more votes to show rating
add to favorites
×
Save as Personal and add changes to this tab that will be seen only by you. Learn more ›
×
You can save this tab as Personal to edit and correct it or add notes. All changes will be seen only by you. Learn more »
save as personal
new!
launch autoscroll
font size
0
reset
guitar tuner
Autoscroll
slow
fast
+/-
esc
set tempo
stop
hoy como ayer(odio al imperio)

intro

A----2-3-5-3-5-3-
E---3-----3---3--

A-3-3-3-3-5-7-7-7-5-3-3-3-3-3----------------
E----------------------------3-3-3-3-5-5-5-5-
                                             
A--3-3-3-3-5-7-7-7-7-5-3-3-3-3-2-------------
E-------------------------------3-2-0-0-0----

verso:

A-3-3-3-3-5-7-7-7-5-3-3-3-3-3----------------
E----------------------------3-3-3-3-5-5-5-5-
                                             (x2)
A--3-3-3-3-5-7-7-7-7-5-3-3-3-3-2-------------
E-------------------------------3-2-0-0-0----

1° (va el bajo solo y la voz) estamos con los...
2° (va con la guitarra) somos de los que no abandonan...

coro:

A--6-6-6-6-6-6-6-6-6-6-6-6-6-6-6-5-5-5-5-5-
E-----------6---------6---------6---------- (x5)
hoy como ayer... (en la cuarta)


verso:
somos de los que soportan...

coro:
pero marcando la nota solamente(x2)
la libertad, la justicia, por la lucha y la anarkia 
(y las siguientes 3 vueltas rasgueadas y 'letra' coro)

verso:
(esta vez todos juntos                    (x3) 
y en la tercera con punteo de la guitarra)
Suggest correction
Give kudos to tab author, rate the tab!
1 2 3 4 5
comments
print report bad tab
guest
Wanna post a correction for this tab? Suggest correction