Oops, an error
Loading. Please wait.

Hoy Como Ayer Tab

30 views 3 this week
no commentswrite comment
1 2 3 4 5
3 more votes to show rating
add to favorites
launch autoscroll
font size
0
reset
how to read this tab
guitar tuner
×
Best way to learn
"Hoy Como Ayer"
Autoscroll
slow
fast
+/-
esc
set tempo
stop
Intro:

       C      C
e|---------------|
B|---------------|
G|-7/3/5*-7/3/5*-|
D|-7/3/5*-7/3/5*-|
A|-5/1/3*-5/1/3*-|
E|---------------|
* = DEJAR SONAR

        C       E       C   G   A
e|---------------------------------|
B|---------------------------------|
G|-7/3/555-7/3/999-7/3/555---------|
D|-7/3/555-7/3/999-7/3/555-555-777-|
A|-5/1/333-5/1/777-5/1/333-555-777-|
E|-------------------------333-555-|

        C       E       C   B  G F# E
e|------------------------------------|
B|------------------------------------|
G|-7/3/555-7/3/999-7/3/555-44---------|
D|-7/3/555-7/3/999-7/3/555-44-55-44-2-|
A|-5/1/333-5/1/777-5/1/333-22-55-44-2-|
E|----------------------------33-22-0-|

VERSO:

Estamos con los que aun se rien del tiempo
                                  D/A#/C
con los que dibujan igual que ayer
               D/A#/E
los dias de hoy,
                  D/A#/C
con los que se rien       del pasado
(1)
pues siempre es presente

PRECORO:

D/A#/C              D/A#/E
   somos de los que no abandonan
D/A#/C                  G       A
   de los que empeñan la vida por un sueño
D/A#/C              D/A#/E
   somos de los que no abandonan
D/A#/C     (1)
   una utopia cada dia más valiosa

    D# A#  D# A#  D# A#  D
e|--------------------------|
B|--------------------------|
G|-888----888----888----777-|
D|-888-88-888-88-888-88-777-|
A|-666-88-666-88-666-88-555-| X3
E|-----66-----66-----66-----|

CORO:

   D#    A#
hoy como ayer
   D#    A#
seguimos puño en alto
   D#    A#
hoy como ayer
   D
alerta antifascista
   D#    A#
hoy como ayer
   D#    A#
seguimos puño en alto
   D#    A#
hoy como ayer
   D
solidaridad

VERSO:

somos de los que soportan la burla
del conformismo calmante
incorruptibles hasta la muerte
no hay dinero que nos vaya a comprar

PRECORO:

somos de los que no abandonan
de los que empeñan la vida por un sueño
somos de los que no abandonan
una utopia cada dia más valiosa

 D#           D#
la libertad, la justicia,
 D#              D
por la lucha... y la anarquía

PUENTE: D# D# D# D

CORO:

hoy como ayer
seguimos puño en alto
hoy como ayer
guerra a la guerra
hoy como ayer
seguimos puño en alto
ingobernables

VERSO:

no cambian los tiempos
tanto como dicen
allá donde miro
siempre he visto opresión
si te quedas parado lamentando
nosotros seguiremos
únete a la rebelión

PRECORO:

somos de los que no abandonan
de los que empeñan la vida
por un sueño
somos de los que no abandonan
una utopía cada dia más valiosa

SOLO:

(LA 1RA PARTE VA MUCHAS VECES)
e|-5-7*-5-7-5-7*-5-7-|-7-5-3-0-|
B|-------------------|---------|
G|-------------------|---------|
D|-------------------|---------|
A|-------------------|---------|
E|-------------------|---------|
* = DEJAR SONAR

(1)e|------------|
   B|------------|
   G|-5*---------|
   D|-5*---------|
   A|-3*-2-------|
   E|-----3-2-0*-|
Suggest correction
Give kudos to tab author, rate the tab!
1 2 3 4 5
comments
print report bad tab
guest
You may want to rate the tab now too:
select rating
Wanna post a correction for this tab? Suggest correction