Oops, an error
Loading. Please wait.

Intolerantes Bass

49 views 1 this week
no commentswrite comment
1 2 3 4 5
3 more votes to show rating
add to favorites
launch autoscroll
font size
0
reset
guitar tuner
×
Best way to learn
"Intolerantes"
Autoscroll
slow
fast
+/-
esc
set tempo
stop
la siguientez notas son de unos de los mejores temas de 
sin dios


intro 
---------------------------
---------------------------
-5-5-5-5-5-7-8-------------
---------------6-6-6-6-7-8-

----------------------------
----------------------------
----5----7-8-5----8-7-5-----
----------------------------

rechazamos la hipocresia....

--------------------------------
---------------------------------
------5-5-5-5-5-78--------------
-------------------6-6-6-6--8-8-8-8-78


intolerante frente al fascista.......

------------------------------
--------------5-5---------------
--5-5-5-5-8-8----8-8-7-7-7-8-8-5-5-
-----------------------------

sabiendo eso pueden sacar el tema es facil rapido y bonito
trabajaen su mente----otro saludo pal yuyin mula ke se va 
pa arica junto antes de ir a tokar a maipunk....yuyin culiao
Suggest correction
Give kudos to tab author, rate the tab!
1 2 3 4 5
comments
print report bad tab
guest
You may want to rate the tab now too:
select rating
Wanna post a correction for this tab? Suggest correction