Oops, an error
Loading. Please wait.

Intolerantes Chords

version 1
version 1

Whole song

26 views 1 this week
no commentswrite comment
1 2 3 4 5
3 more votes to show rating
add to favorites
×
Save as Personal and add changes to this tab that will be seen only by you. Learn more ›
×
You can save this tab as Personal to edit and correct it or add notes. All changes will be seen only by you. Learn more »
save as personal
new!
launch autoscroll
font size
0
reset
transpose
0
reset
display chords
guitar tuner
Autoscroll
slow
fast
+/-
esc
set tempo
stop
Strumming
There is no strumming pattern for this song yet. and get +5 IQ
espero q les sirva de algo   AY les VA......

Intro: empieza con el bajo

(0:10)
D   E#   A#   B (2VECES)   E E# D

E E# D            E# E D

(0:28)

        D            E#     A#        B
Rechazamos la hipocresía manipulan las palabras
        D            E#            A#              B
Tolerante intolerante ni violento no violento manipulan las ideas
        D      A#        E           E  D# D
Intolerante frente al fascista y al capitalista
       D       A#        E          E   D# D
Intolerante frente al explotador y al cenador
D A# E    E D# D

  D      A#      E        E D# D
Somos, somos intolerantes
      D                 E#   A#              B
Si sus ejércitos son humanitarios nosotros lo contrario
      D                 E#  A#               B
Si su policía es de proximidad con fuego les alejaremos    fuego

Solo(1:15)

e-------------------------------------------------------------------
b-------------------------------------------------------------------
g-------------------------------------------------------------------
d-------------------------------------------------------------------
a----5---7-8-9-10-8-7------5---7-8-9-9/12-11-10-8-7-9-7--------------
e-------------------------------------------------------------------

e-------------------------------------------------------------------
b-------------------------------------------------------------------
g-------------------------------------------------------------------
d-------------------------------------------------------------------
a----5---7-8-9-10-8-7------5---7-8-9-9/12-11-10-8-7--8-7-------------
e-------------------------------------------------------------------
e----------------------------------------------------------------------
b----------------------------------------------------------------------
g----------------------------------------------------------------------
d------------------------------------------------------------10-9-8----
a----5---7-8-9-10-8-7-7-7-7-5-5-5-5----5--7-8-9-9/12-11-10-8-7------10--
e----------------------------------------------------------------------

(1:42)
    D        A#      E    E D# D
Violentos contra el poder corre sin fuerza
    D        A#      E    E D# D
Violentos por defender la dignidad
D  A# E    E D# D

  D        A#       E    E D# D
Somos, somos violentos
          D                       E#     A#           B
Mientras la desigualdad se vista de respeto seremos intolerantes
          D                       E#     A#           B
Mientras sigan extendiendo la brutalidad seremos jóvenes violentos

Se keda la bateria

(2:23)
D    A#   B
         Intolerantes
D    A#   B
         Violentos
(2:31)
e------------------------------------------------------------------
b------------------------------------------------------------------
g------------------------------------------------------------------
d------------------------------------------------------------------
a----5--7-8-9-10-8-7----5--7-8-9-9/12-11-10-8-7-8-7-----------------
e------------------------------------------------------------------

e------------------------------------------------------------------
b------------------------------------------------------------------
g------------------------------------------------------------------
d------------------------------------------------------------------
a----5--7-8-9-10-8-7----5--7-8-9-9/12-11-9-8-7-9---9-8-7-------
e------------------------------------------------------------------


Este es mi primer tab se lo dedico a los compas de Lujan, Renzo, Bejarano y a mi novia
cualquier arreglo o mentada les dejo el correo davidag10@
Suggest correction
Give kudos to tab author, rate the tab!
1 2 3 4 5
comments
print report bad tab
guest
Wanna post a correction for this tab? Suggest correction