Oops, an error
Loading. Please wait.

La Idea Bass Tab

14 views 1 this week
no commentswrite comment
1 2 3 4 5
3 more votes to show rating
add to favorites
launch autoscroll
font size
0
reset
guitar tuner
Autoscroll
slow
fast
+/-
esc
set tempo
stop
Help us to improve Ultimate-Guitar.com Take our survey!
×
sacada del solidaridad

parte 1

somos un mundo nuevo...

A---77777-10101010--------------
E-----------------10101010-8-10- (x4)

parte 2
(en la tercera de abajo) apoyo mutuo y ....

A-----77777-10101010---------------------
E-------------------1010101010-8-10-8-10- (x4)

parte 3
se acabara la explotacion...

A---77777-10101010--------------
E-----------------10101010-8-10-
                                  (x2)
A---77777-10101010--------------
E-----------------10101010------

parte 2 (x4)

que tiene la....

G----9-7------7-5------------------
D-------9-7------7-5---------------
A---7------9-5------7-------------- (x2)
E--------------------5-3-2-0-3-2-0-

con punteo de la guitarra

A---7777777777-  (x4)

todos juntos

D----------9-------9-
A---7777777-7777777-- (x2)

parte 2 (x2)

A---777777-10-9--777777------
E----------------------8-10--  (x4) y en la cuarta
                                    E--8-8-3-3-
punteo 2

A---77777-10101010---------- (x4)
E-----------------10101010--

A---77777777---- (x2) la idea..
Suggest correction
Give kudos to tab author, rate the tab!
1 2 3 4 5
comments
print report bad tab
guest
You may want to rate the tab now too:
select rating
Wanna post a correction for this tab? Suggest correction