Oops, an error
Loading. Please wait.

La Idea Tab

version 1
version 1

Whole song

42 views 1 this week
no commentswrite comment
1 2 3 4 5
3 more votes to show rating
add to favorites
×
Save as Personal and add changes to this tab that will be seen only by you. Learn more ›
×
You can save this tab as Personal to edit and correct it or add notes. All changes will be seen only by you. Learn more »
save as personal
new!
launch autoscroll
font size
0
reset
how to read this tab
guitar tuner
Autoscroll
slow
fast
+/-
esc
set tempo
stop
Sin Dios - La idea
...Ustedes ven los tiempos...

Versos... (4 veses)
e|--------------------|
B|--------------------|
G|--9---12-------12---| 
D|--9---12---12--12---|
A|--7---10---12--10---|
E|-----------10-------|
   Somos un mundo nuevo...

'Coro'.1. (4veses)
e|--------------------------------|
B|--------------------------------|
G|--9---12-----------------12-----| 
D|--9---12---12---12-10-12-12-----|
A|--7---10---12---12-10-12-10-----|
E|-----------10---10-8--10--------|

segunda parte del coro:  (2veses)
e|--------------------|-------------|
B|--------------------|-------------|
G|--9---12------------|--9--12------|
D|--9---12---12---10--|--9--12--12--|
A|--7---10---12---10--|--7--10--12--|
E|-----------10---8---|---------10--|

'Coro'.1.(4veses)
e|--------------------------------|
B|--------------------------------|
G|--9---12-----------------12-----| 
D|--9---12---12---12-10-12-12-----|
A|--7---10---12---12-10-12-10-----|
E|-----------10---10-8--10--------|

*: dejar sonar... (2 veses)
e|--------------|--------------|
B|--*---*-------|--------------|
G|--9---7---*---|--------------|
D|--9---7---7---|-5-4-2--5-4-2-|
A|--7---5---7---|-5-4-2--5-4-2-|
E|----------5---|-3-2-0--3-2-0-|
ke tiene la burguesia...

Riff..  (4 veses)
e|--------------------------------|-----------------------|
b|-----------------10-12--10------|-----------------------|
g|---99999---11-12-----------12-11|-99999--7--------------|
d|--------------------------------|----------10-9--7------|
a|--------------------------------|------------------10-9-|
e|--------------------------------|-----------------------|
La otra guitarra toka esto... kuando empieza la tercera ves ke se toka el ppunteo
e|--------------------|
B|--------------------|
G|--9---12-------12---| 
D|--9---12---12--12---|
A|--7---10---12--10---|
E|-----------10-------|

Coro..1 (2 veses)
e|--------------------------------|
B|--------------------------------|
G|--9---12-----------------12-----| 
D|--9---12---12---12-10-12-12-----|
A|--7---10---12---12-10-12-10-----|
E|-----------10---10-8--10--------|


se interkala con la de abajo
2 veses
e|-----------------------|
B|-----------------------|
G|--9---12-11---9--------| 
D|--9---12-11---9--10-12-|
A|--7---10-9----7--10-12-|
E|------------------8-10-|
                            ( * esto se toka en la ultima ves)
e|-----------------------|---------|
B|-----------------------|---------|
G|--9---12-11---9--------|--*-*-*--|
D|--9---12-11---9--10-10-|--5-4-2--|
A|--7---10-9----7--10-10-|--5-4-2--|
E|-----------------8--8--|--3-2-0--|

Punteo...
(* dejar sonar)(h = Hammer on)
e|-----------------|-----------------|-----------------------------------------------------------|
b|-----------------|-----------------|--------------------------10-----------10---------10----*--|
g|---99999---7---7-|---7--9-9/10-9-7-|--99999--11-12----12-11h12-----12-11h12---12-11h12-----12--|
d|-------------9---|-9---------------|-----------------------------------------------------------|
a|-----------------|-----------------|-----------------------------------------------------------|
e|-----------------|-----------------|-----------------------------------------------------------|
La otra guitarra toka esto...
e|--------------------|
B|--------------------|
G|--9---12-------12---| 
D|--9---12---12--12---|
A|--7---10---12--10---|
E|-----------10-------|

Final...
e|--------------------------------|---------|
b|-----------------10-12--10------|---------|
g|---99999---11-12-----------12-11|-99999---|
d|--------------------------------|---------|
a|--------------------------------|---------|
e|--------------------------------|---------|

Aki ta la wea... kualkier wea manden un mail a nico_harcorepunk77@
weno chao
Suggest correction
Give kudos to tab author, rate the tab!
1 2 3 4 5
comments
print report bad tab
guest
Wanna post a correction for this tab? Suggest correction