Oops, an error
Loading. Please wait.

La Idea Tab

version 2
version 2

Whole song

19 views 1 this week
no commentswrite comment
1 2 3 4 5
3 more votes to show rating
add to favorites
×
Save as Personal and add changes to this tab that will be seen only by you. Learn more ›
×
You can save this tab as Personal to edit and correct it or add notes. All changes will be seen only by you. Learn more »
save as personal
new!
launch autoscroll
font size
0
reset
how to read this tab
guitar tuner
Autoscroll
slow
fast
+/-
esc
set tempo
stop
Ahí Uds. ven los tiempos...

Verso 1:
| --------------------------|
| --------------------------|
| --9---12-------12---------| 
| --9---12---12--12---------|    X4
| --7---10---12--10---------|
| -----------10-------------|
   Somos un mundo nuevo...

Coro:
|----------------------|-----------------|
|----------------------|-----------------|
|--9----12-------------|----------12-----| 
|--9----12-------12----|-12-10-12-12-----|     X4
|--7----10-------12----|-12-10-12-10-----|
|----------------10----|-10-8--10--------|

Verso 2:
|--------------------|-----------------|
|--------------------|-----------------|
|--9---12------------|------9--12------|
|--9---12---12---10--|------9--12--12--|     X2
|--7---10---12---10--|------7--10--12--|
|-----------10---8---|-------------10--|

Coro:
|-------------------------------------|
|-------------------|-----------------|
|--9----12----------|----------12-----| 
|--9----12----12----|-12-10-12-12-----|     X4
|--7----10----12----|-12-10-12-10-----|
|-------------10----|-10-8--10--------|
Verso 3:
|------------------------|---------------------|-------------------|
|------------------------|---------------------|-------------------|
|------------------------|---------------------|-------------------|
|------9-----7-----------|---------------------|-------------------|     X2
|------7-----5-----7-----|---5-----4-----2-----|---5-----4-----2---|
|------------------5-----|---3-----2-----0-----|---3-----2-----0---|
Quien tiene la burguesía...


Punteo 1:
|-----------------------------------------|--------------------------------|
|----------------------10-12--10----------|--------------------------------|
|---99999---11-12---------------12-11-----|-----99999-----7----------------|
|-----------------------------------------|-------------------10-9--7------|     X4
|-----------------------------------------|---------------------------10-9-|
|-----------------------------------------|--------------------------------|

PRE-Coro:
|-------------------|-----------------|
|-------------------|-----------------|
|--9----12----------|----------12-----| 
|--9----12----12----|-12-10-12-12-----|     X2
|--7----10----12----|-12-10-12-10-----|
|-------------10----|-10-8--10--------|

|----------------|-----------------|
|----------------|-----------------|
|--9---12-11-9---|---9---------9---| 
|--9---12-11-9---|---9---10-10-9---|     X4
|--7---10-9--7---|---7---10-10-7---|
|----------------|--------8--8-----|

Punteo 2:
|-----------------|----------------------|-----------------------------------------------------|
|-----------------|----------------------|------------------------10---------10---------10---*-|
|--9999----7---9--|--7--9-9-11-12 11-9-7-|--9999--11-12---12-11h12---12-11h12---12-11h12----12-|
|-----------------|----------------------|-----------------------------------------------------|
|-----------------|----------------------|-----------------------------------------------------|
|-----------------|----------------------|-----------------------------------------------------|

|---------------------|
|---------------------|
|--9---12--------12---| 
|--9---12---12---12---|     X2
|--7---10---12---10---|
|-----------10--------|

Punteo 3:
|-----------------------------------------|-----------|
|----------------------10-12--10----------|-----------|
|---99999---11-12---------------12-11-----|---99999---|
|-----------------------------------------|-----------|
|-----------------------------------------|-----------|
|-----------------------------------------|-----------|

*  = dejar de sonar
h = Hammer on

Fin.
Suggest correction
Give kudos to tab author, rate the tab!
1 2 3 4 5
comments
print report bad tab
guest
Wanna post a correction for this tab? Suggest correction