Oops, an error
Loading. Please wait.

La Muerte Del Rock And Roll Tab

2 views 1 this week
no commentswrite comment
1 2 3 4 5
3 more votes to show rating
add to favorites
launch autoscroll
font size
0
reset
how to read this tab
guitar tuner
Autoscroll
slow
fast
+/-
esc
set tempo
stop
Help us to improve Ultimate-Guitar.com Take our survey!
×
Bueno esperoo que este bien... en kasi toda la kancion usa una
tablatura de una kancion ke se llama Wipe out...
A veces lo hace mas rapido... Aka va...

e|-----------------------|----------------------|
B|-----------------------|----------------------|
G|-----------------------|----------------------|
D|-----8-9-10-10-10-8----|----8-9-10-10-10-8----|
A|--10----------------10-|-10----------------10-|
E|-----------------------|----------------------|

----------------------|----------------------|----------------------|
----------------------|----------------------|----------------------|
----------------------|----------------------|-------8-9-10-10-10-8-|
-------8-9-10-10-10-8-|-------8-9-10-10-10-8-|----10----------------|
-10-10----------------|-10-10----------------|-10-------------------|
----------------------|----------------------|----------------------|

----------------------|----------------------|----------------------|
----------------------|----------------------|----------------------|
-------8-9-10-10-10-8-|----------------------|----------------------|
-10-10----------------|-10----8-9-10-10-10-8-|-------8-9-10-10-10-8-|
----------------------|----10----------------|-10-10----------------|
----------------------|----------------------|----------------------|

Es todo kon notas korcheas... espero ke no se les komplike para
hacerlo...

Todavia no pude sakar los akordes ke usa en la kancion... asi ke si
los sakan se los agradeceria...

Kualkier duda Lautarorey__07@

SALUD Y (A)NARKIA!
Suggest correction
Give kudos to tab author, rate the tab!
1 2 3 4 5
comments
print report bad tab
guest
You may want to rate the tab now too:
select rating
Wanna post a correction for this tab? Suggest correction