Oops, an error
Loading. Please wait.

Legal O Ilegal Tab

25 views 1 this week
no commentswrite comment
1 2 3 4 5
3 more votes to show rating
add to favorites
launch autoscroll
font size
0
reset
how to read this tab
guitar tuner
×
Best way to learn
"Legal O Ilegal"
Autoscroll
slow
fast
+/-
esc
set tempo
stop
Intro:
     A                G               A
-----------------------|-----------------------|-----------------------|
---------5-------------|---------3-------------|---------5-------------|
--6-----------6--------|--4-----------4--------|--6-----------6--------|
--7--------------7-----|--5--------------5-----|--7--------------7-----|
--7-----------------7--|--5-----------------5--|--7-----------------7--|
--5--------------------|--3--------------------|--5--------------------|


        G                        F                       G
-----------------------|-----------------------|-----------------------|
---------3-------------|---------1-------------|---------3-------------|
--4-----------4--------|--2-----------2--------|--4-----------4--------|
--5--------------5-----|--3--------------3-----|--5--------------5-----|
--5-----------------5--|--3-----------------3--|--5-----------------5--|
--3--------------------|--1--------------------|--3--------------------|


  A     A     A
-----------------------|-----------|-----------|-----------|
-----------------------|-----------|-----------|-----------|
--6-----6-----6--------|-----------|-----------|-----------|
--7-----7-----7--------|-----------|-----------|-----------|
--7-----7-----7--------|-----------|-----------|-----------|
--5-----5-----5--------|-----------|-----------|-----------|


      A             G                 A             G
--------------------------------|--------------------------------|
--5-----5--------3-----3--------|--5-----5--------3-----3--------|
----6------6-------4------4-----|----6------6-------4------4-----|
------7------7-------5------5---|------7------7-------5------5---|
---------------7--------------5-|---------------7--------------5-|
--------------------------------|--------------------------------|
 F          G          A     A     A
--------------------|-----------------------|-----------|-----------|
--------------------|-----------------------|-----------|-----------|
--------------------|--6-----6-----6--------|-----------|-----------|
--3--------5--------|--7-----7-----7--------|-----------|-----------|
--3--------5--------|--7-----7-----7--------|-----------|-----------|
--1--------3--------|--5-----5-----5--------|-----------|-----------|


A                            G
Te han cogido intentando okupar
El castigo no se hará esperar
F               G                    A
Que sea legal o ilegal a ti te da igual.
Insumisión al estado
Consejo de guerra, más represión,
Hagas lo que hagas a ellos les da igual.
Legal, legal o ilegal

  A  G  A   G
Ohh ohh?. Ohh ohh?.
       F    G
Ohh ohh?. Ohh ohh?.
A      A       A
Legal, legal o ilegal

SOLO BASE: ( A G A G F G A )

-----------|--7-5----------7-5----------|--7-5-------------5--------|
-----------|------8-5----L-----8-3----L-|------8-5----L-8-----7-----|
-----------|----------------------------|------------------------7--|
-----------|----------------------------|---------------------------|
-----------|----------------------------|---------------------------|
-----------|----------------------------|---------------------------|

--------------------|--------------------|-------|-------|-------|-------|
--6--------8--------|--10----------------|-------|-------|-------|-------|
--------------------|--------------------|-------|-------|-------|-------|
--------------------|--------------------|-------|-------|-------|-------|
--------------------|--------------------|-------|-------|-------|-------|
--------------------|--------------------|-------|-------|-------|-------|

  A  G  A   G
Ohh ohh?. Ohh ohh?.
       F    G
Ohh ohh?. Ohh ohh?.
A      A       A
Legal, legal o ilegal

A G A G F G A

A                  G
No les gusta como piensas,
No te dejarán vivir;
F                       G          A
En este sistema no hay sitio para tí, para tí
Con sus leyes te quieren asustar
Con sus leyes te quieren machacar
¿Qué será legal? ¿Que será ilegal?

Sabotaje, insurrección
Guerrilla urbana, revolución
Es tu vida y nunca vas a cambiar.
La única forma de acabar con tu rebeldía
Te tendrán que matar,
Que sea legal o ilegal a ellos les da igual.

  A  G  A   G
Ohh ohh?. Ohh ohh?.
       F    G
Ohh ohh?. Ohh ohh?.
A      A       A
Legal, legal o ilegal

GAL, GAL, GAL...
Suggest correction
Give kudos to tab author, rate the tab!
1 2 3 4 5
comments
print report bad tab
guest
You may want to rate the tab now too:
select rating
Wanna post a correction for this tab? Suggest correction