Oops, an error
Loading. Please wait.

No Queremos Paz Sino La Victoria Bass

40 views 1 this week
no commentswrite comment
1 2 3 4 5
3 more votes to show rating
add to favorites
×
Save as Personal and add changes to this tab that will be seen only by you. Learn more ›
×
You can save this tab as Personal to edit and correct it or add notes. All changes will be seen only by you. Learn more »
save as personal
new!
launch autoscroll
font size
0
reset
guitar tuner
Autoscroll
slow
fast
+/-
esc
set tempo
stop
Intro x4
A-------------3-3-3-2-2-2--
E-5-5-5-0-0-0--------------

A---------------------------
E-5-5-5-0-0-0-1-1-1-3-3-3---

No nos vereis ... x2
A--------------3-3-3-2-2-2--
E--5-5-5-0-0-0--------------

A---------------------------
E-5-5-5-0-0-0-1-1-1-3-3-3---

No queremos paz ...x2
A -5-5-5-5----3----7-7-7-7-------------
E ----------------------------5--------

No queremos paz Sino la victoria ...x2
D -----------------------5-----------------------------------------------
A -5-5-5-5-3-3-3-3-7-7-7---7-5-5-5-5-5-----------------------------------
E -----------------------------------------------------------------------

Monopolio de la violencia ...x4
D ---6-5-----4-3----6-6-6-6-6-5-5-3-3-2-2---
A -5-----5-3-----3--------------------------
E ------------------------------------------

Alzad los puños ...
A -----------------3-3-3-3-2-2-2-2---------------------------------------
E -5-5-5-5-0-0-0-0-----------------5-5-5-5-0-0-0-0-1-1-1-1-3-3-3-3-------

Resistencia !! Resistencia !! ..x4
E -5-5-5-5------------------

Lleva la lucha ...x2
A -----------------3-3-3-3-2-2-2-2---------------------------------------
E -5-5-5-5-0-0-0-0-----------------5-5-5-5-0-0-0-0-1-1-1-1-3-3-3-3-------

No queremos paz ...x2
A -5-5-5-5----3----7-7-7-7-------------
E ----------------------------5--------

No queremos paz Sino la victoria ...x2
D -----------------------5-----------------------------------------------
A -5-5-5-5-3-3-3-3-7-7-7---7-5-5-5-5-5-----------------------------------
E -----------------------------------------------------------------------

AHI TA LA TAB OJALA LES GUSTE KUALKIER WEA ME AVISAN AL MAIL...
SALUD Y ANARKIA
Suggest correction
Give kudos to tab author, rate the tab!
1 2 3 4 5
comments
print report bad tab
guest
Wanna post a correction for this tab? Suggest correction