Oops, an error
Loading. Please wait.

Sangre Es Dinero Tab

15 views 1 this week
no commentswrite comment
1 2 3 4 5
3 more votes to show rating
add to favorites
launch autoscroll
font size
0
reset
how to read this tab
guitar tuner
×
Best way to learn
"Sangre Es Dinero"
Autoscroll
slow
fast
+/-
esc
set tempo
stop
Del disco Guerra a la guerra


La canción va con las notas A C E F todo el rato
y también se usa de base para el solo.

|-----------------------------------------|
|-----------------------------------------|
|-9-10-12-10-9-----------------9----------|
|--------------12-10-9-10---12---12-10-9--|
|-----------------------------------------|
|-----------------------------------------|

|---------------------------------------------|
|-----------------------13----13-12-10--------|
|-9-10-12-10-9-------------------------12-10--|
|--------------12-10-9------------------------|
|---------------------------------------------|
|---------------------------------------------|


Cualquier cosa mandar un mensaje edorockandroll@
Gracias
Suggest correction
Give kudos to tab author, rate the tab!
1 2 3 4 5
comments
print report bad tab
guest
You may want to rate the tab now too:
select rating
Wanna post a correction for this tab? Suggest correction