Oops, an error
Loading. Please wait.

Via Tab

10 views 1 this week
no commentswrite comment
1 2 3 4 5
3 more votes to show rating
add to favorites
launch autoscroll
font size
0
reset
how to read this tab
guitar tuner
Autoscroll
slow
fast
+/-
esc
set tempo
stop
Help us to improve Ultimate-Guitar.com Take our survey!
×
acordes
      traste2      traste2
 MI------2------------1------
 SI------1------------1------
 SOL-----2------------2------
 RE------3------------1------
 LA------4------------3------
 MI------2------------2------
      FAsus9b      FAsus7


 intro ace este arpegio...con la voz
  *es un ligado..
--------------------|--------2------0---|---------------0-----|
 --------3-----2----|------0----0-------|------------2--------|
 ------4---4------4-|----0--------0-----|----------0---0------|
 ----4--------------|--2----------------|--------4------------|
 --2----------------|-------------------|------4--------------|
 -------------------|-------------------|---------------------|
        SIm                 MIm                   FAsus9b

                TAC
|---------------------|
|------32*------------|
|----4-----4----3-^---|
|---4-------4---4-|---|
|-2-------------4-|---|
|---------------2-|---|
     SIm       FAsus


la 2ª introducion instrumental

 --10--9----------|---10--9-----|------10-9-10--|
 ----------7---7--|----------8--|--8------------|
 -----------------|-------------|---------------|
 -----------------|-------------|---------------|
 -----------------|-------------|---------------|
 -----------------|-------------|---------------|
       SIm             MIm          SOL


 -----9-10-12-10--14-12-10_9---------|
 --12--------------------------12-11-|
 ------------------------------------|
 ------------------------------------|
 ------------------------------------|
 ------------------------------------|
          SOL               FA


    SIm                MIm         SOL       SIm SOL SIm
era la luz de su mañana y el era su corazon
    SIm                MIm            SOL
dos enamorado de la vida ke la muerte los separo
    SIm                MIm            SOL    SIm SOL SIm
solo kerian viviiiiii juntos en un inmenso jardin
    SIm                MIm                SOL
porke toda la vida juntos la kerian hay compartiiir


    SIm                MIm         SOL       SIm SOL SIm
viaaa aki yo e yegao mi reloj se ha paraooooo y yo no aguanto mas
    SIm                MIm         SOL       SIm SOL SIm
yoo te vere desde el cielo yo no te olvidare aki te esperaree


    SIm                MIm                    SOL
sola sola se encuentra sola no hay nadie que la consueele
    SIm                MIm         SOL       SIm SOL SIm
la droga se lo ha llevado de su vida lo han arrancado
      SIm                  MIm                 SOL
sin su amor ella se ha kedaooooo pero kiero que sepas
    SIm                MIm         SOL       SIm SOL SI
que yo siempre estare a tu laaaaaaaooo


viaaa aki yo he llegado mi reloj se ha paradooooo y yo no aguanto mas
yoo te vere desde el cielo yo no te olvidare aki te esperaree.. (x3)
Suggest correction
Give kudos to tab author, rate the tab!
1 2 3 4 5
comments
print report bad tab
guest
You may want to rate the tab now too:
select rating
Wanna post a correction for this tab? Suggest correction