Oops, an error
Loading. Please wait.

A Ellos Les Gusta Bailar Chords

by Sin ley
29 views 1 this week
no commentswrite comment
1 2 3 4 5
3 more votes to show rating
add to favorites
launch autoscroll
font size
0
reset
transpose
0
reset
display chords
guitar tuner
Autoscroll
slow
fast
+/-
esc
set tempo
stop
Strumming
There is no strumming pattern for this song yet. and get +5 IQ
________________________________________________________
todo el tema en A Bm                                    |
                                                        |
durante todo el tema una guitarra hace esto,            |
o una octava mas alto                                   |
                                                        |
E:------------------------------------|                 |
B:------------------------------------|                 |
G:--6---0-------0----0----0----0------|    x2           |
D:--7---7-----7----------7------------|                 |
A:--7---7----------7----------7-------|                 |
E:------------------------------------|                 |
                                                        |
E:------------------------------------|                 |
B:-----3---3-----5-5-5----------------|                 |
G:--4---4---4---6-6-6-----------------|    x2           |
D:------------------------------------|                 |
A:------------------------------------|                 |
E:------------------------------------|                 |
________________________________________________________|


INTRO: A Bm

ESTRIBILLO:     A
                es que a ellos, ves, les gusta bailar,
                es que a ellos, ves, les gusta danzar
                Bm
                nada les importa
                A
                es que a ellos, ves, les gusta bailar
                es que a ellos les gusta danzar
                Bm
                dime que provoca

A
no acaso a veces provoca el placer
te provoca de donde y de quien
Bm
dime no lo tomas
A
es confuso tener de donde elegir
??? de donde elegir
Bm
dime que tu quieres

ESTRIBILLO

A Bm (x2)

ESTRIBILLO

A
no lo hago no lo pago
Bm
avisa si tienes cuotas de dolor
A
yo no huyo, y lo lucho
Bm
lo opuesto lo tengo y me tengo yo, voy a ser otro

ESTRIBILLO

A Bm (x2)

A
es todo el camino que he de llevar
no tengo recuerdos que guardar
Bm
la noche se viene y estos es asi
no tengo el calor que viene de ti
A
transpira mi cuerpo hasta sangrar
no duermo Mentiras si es de verdad
Bm
y ellos que bailan si saber Porque
quizás ahora reviente.

ESTRIBILLO

FINAL: A Bm (x2) A
Suggest correction
Give kudos to tab author, rate the tab!
1 2 3 4 5
comments
print report bad tab
guest
Wanna post a correction for this tab? Suggest correction