Oops, an error
Loading. Please wait.

Mi Amor Chords

53 views 1 this week
no commentswrite comment
1 2 3 4 5
3 more votes to show rating
add to favorites
launch autoscroll
font size
0
reset
transpose
0
reset
display chords
guitar tuner
Autoscroll
slow
fast
+/-
esc
set tempo
stop
Help us to improve Ultimate-Guitar.com Take our survey!
×
INTRO:
     _______Esta parte de repite 4 veces______
     |                                       |
e:-7--------7-------------------5-------------
B:-8----7H8---8-7-7-8-7-----5H7---7-5-5-7-5-5-
G:-9--9-----------------7-7-------------------
D:-9------------------------------------------
A:-7------------------------------------------
E:--------------------------------------------

e:-----------------------------------------------------7-
B:-8-7-5-8-7-5-8-7-5-8-7-5---7-5---7-5---7-5---7-5---5-8-
G:-------------------------7-----7-----7-----7-----7---9-
D:-----------------------------------------------------9-
A:-----------------------------------------------------7-
E:-------------------------------------------------------

Lo que sigue en la intro es facil, solo son arpegios en MIm y RE
Em      D
E:-7     E:-5
B:-8     B:-7
G:-9     G:-7
D:--     D:--
A:--     A:--
E:--     E:--

De qui en adelante los acordes son en quitas

    D                         E
Mi amor quiero vivirlo a mi manera
    D                          E
mi amor quiero mostrarte mi verdad
    D                         E
mi amor quiero decirte que te quiero
    D                    E
mi amor espera tu sinceridad

       C                        G
Y cada vez que ne levanto de mi cama pienso en vos
         D                        E
y veo el sol amor, que alumbra mi mañana corazon
       C                     G
y cada vez que me acuesto el deseo de tenerte
     D                    E
me hace vivir vida un dia mas

   D                                 E
Mi corazon, mi bien, mi flor, mi corazon, mi corazon
D           E
  mi vida entera
   D                              E
mi amor, mi bien, mi flor, mi corazon, uh oh uh oh...
D           E
  mi vida entera

Mi amor quiero vivirlo a mi manera
mi amor quiero mostrarte mi verdad
mi amor quiero decirte que te quiero
mi amor espera tu sinceridad

Y cada vez que ne levanto de mi cama pienso en vos
y veo el sol amor, que alumbra mi mañana corazon
y cada vez que me acuesto el deseo de tenerte
me hace vivir vida un dia mas
Suggest correction
Give kudos to tab author, rate the tab!
1 2 3 4 5
comments
print report bad tab
guest
You may want to rate the tab now too:
select rating
Wanna post a correction for this tab? Suggest correction