Oops, an error
Loading. Please wait.

Nena, Nena, Nena Bass Tab

37 views 1 this week
no commentswrite comment
1 2 3 4 5
3 more votes to show rating
add to favorites
launch autoscroll
font size
0
reset
guitar tuner
Autoscroll
slow
fast
+/-
esc
set tempo
stop
Help us to improve Ultimate-Guitar.com Take our survey!
×
intro / puente / final:

G|------|------------------------------------------------|
D|------|-------------------------------4-5-6/7--55------|
A|------|-------------------------3-4-5-------------7-5--|
E|--15--|-345-3-0--2-3-5-3-3-0-3-------------------------|
(solo al )
(principio)

G|----------------------------------------------|
D|-----------------------------4-5-6/7--55------|
A|----------------2-3-5--3-4-5-------------7-5--|
E|-345-3-0--2-3-5-------------------------------|

verso y estribillo:

G|---------------------------------------------------------------|
D|---------------------------------------------------------------|
A|------------------------------------5-5-5-5-5-5-5-5------------|
E|--345-5-5-5-5-5-5-5-3-3-3-3-3-3-3-3-----------------5-5-5-5-5--|


el orden seria:

(LA SOL RE LA) (x2) + intro

LA                  SOL
yo siempre te quise demasiado
  RE                 LA
como para evitar que vos te fueras
LA                SOL
se que te he desilusionado
   RE                   LA
quizas lo hubiera hecho de todas maneras

estribillo:
LA                       SOL
nena, nena, nena, nena, nena, nena
     RE            LA
cada dia que pasa te quiero mas

intro (x2)

nena, nena, nena necesito tu amor
tu cariño tu ternura tu pasion
necesito que me ayudes a comprender
por que lo nuestro nunca pudo ser

estribillo

intro (x2)

ahora siento que te extraño
y una desmedida por una gillet
es como el dia que me di cuenta
que no se va la sangre por una mujer

estribillo

intro (x2)

ahora comprendo a los borrachos
ahora tengo compañia del alcohol
no me interesa un carajo
que haga de mi vida sin tu amor

estribillo

final:
LA                  SOL
Nena, nena, nena; Nena, nena, nena;
  RE                 LA
Nena, nena, nena; Nena, nena, nena;
(intro)
Nena, nena, nena, nena, nena, nena
Cada dia que pasa te quiero mas

termina en LA


Espero que les sirva y aguante sin ley locoooo!!!
Suggest correction
Give kudos to tab author, rate the tab!
1 2 3 4 5
comments
print report bad tab
guest
You may want to rate the tab now too:
select rating
Wanna post a correction for this tab? Suggest correction