Oops, an error
Loading. Please wait.

Porroro Bass

by Sin ley
35 views 1 this week
no commentswrite comment
1 2 3 4 5
3 more votes to show rating
add to favorites
launch autoscroll
font size
0
reset
guitar tuner
×
Best way to learn
"Porroro"
Autoscroll
slow
fast
+/-
esc
set tempo
stop
bue... es el primero que subo... aguante sin ley papa!!

Se repite...

G:----------------------------------|
D:------7---9/11-11-9-7-0-----------|
A:--7-9-------------------7-7/9-9-7-|
E:----------------------------------|

G:----------------------------------|
D:------7---9/11-11-9-11-12-9-7-7---|
A:--7-9-0---------------------------|
E:----------------------------------|


__BochaVicious__
Suggest correction
Give kudos to tab author, rate the tab!
1 2 3 4 5
comments
print report bad tab
guest
You may want to rate the tab now too:
select rating
Wanna post a correction for this tab? Suggest correction