Oops, an error
Loading. Please wait.

Porroro Chords

26 views 1 this week
no commentswrite comment
1 2 3 4 5
3 more votes to show rating
add to favorites
launch autoscroll
font size
0
reset
transpose
0
reset
display chords
guitar tuner
×
Best way to learn
"Porroro"
Autoscroll
slow
fast
+/-
esc
set tempo
stop
INTRO: A D

A  D
a la mañana cuando me levanto
A  D
enrollo uno y es el primero
A  D
es el famoso, el mañanero
A  D
te deja loco, el día entero.
A  D
porroro...io io io io


E:--------------------------------|
B:--------------------------------|
G:--------------------------------|
D:------------------4-4-4---------|
A:----------4-7------------5------|
E:--5-5-5--------------------5----|     x2

E:----------------------------------------------------------|
B:----------------------------------------------------------|
G:----------------------------------------------------------|
D:-------------------------------4-4-4-4-4-4-4-4------------|
A:----------4-7---------4-7-------------------------5-------|
E:--5-5-5------5-5-5---------------------------------5------|   x2

BAJO:
todo el tema con esta base

G:----------6-6---------------|
D:------7-9-----9-7-----------|
A:--7-9-0-----------5-7-7/9-9-|
E:----------------------------|

G:----------6-6---6-7---------|
D:------7-9-----9-----9-7-7---|
A:--7-9-0---------------------|
E:----------------------------|
Suggest correction
Give kudos to tab author, rate the tab!
1 2 3 4 5
comments
print report bad tab
guest
You may want to rate the tab now too:
select rating
Wanna post a correction for this tab? Suggest correction