Oops, an error
Loading. Please wait.

Porroro Tab

by Sin ley
46 views 3 this week
no commentswrite comment
1 2 3 4 5
3 more votes to show rating
add to favorites
launch autoscroll
font size
0
reset
how to read this tab
guitar tuner
×
Best way to learn
"Porroro"
Autoscroll
slow
fast
+/-
esc
set tempo
stop
Porroro:
La intro es con bajo pero tambien se puede sacar en guitartra :)

Intro I:
E:----------------------------------------------------------|
B:----------------------------------------------------------|
G:----------------------------------------------------------|
D:----------------------------------------------------------|
A:-------7-9-9-7-0--------------------7-9-9-7-9-11-9-7-7----|
E:-5-7-9-----------7--7-9-9-----5-7-9-----------------------|    X2

(Todo el tema con esta base)

Intro II: A D  X4

A                  D
a la mañana cuando me levanto
A             D
enrollo uno y es el primero
A             D
es el famoso, el mañanero
A             D
te deja loco, el día entero.
A            D
porroro...io io io io  X4

E:--------------------------------|
B:--------------------------------|
G:--------------------------------|
D:------------------4-4-4---------|
A:----------4-7------------5------|
E:--5-5-5--------------------5----|     x2

E:----------------------------------------------------------|
B:----------------------------------------------------------|
G:----------------------------------------------------------|
D:-------------------------------4-4-4-4-4-4-4-4------------|
A:----------4-7---------4-7-------------------------5-------|
E:--5-5-5------5-5-5---------------------------------5------|   x2

A                  D
a la mañana cuando me levanto
A             D
enrollo uno y es el primero
A             D
es el famoso, el mañanero
A             D
te deja loco, el día entero.
A            D
porroro...io io io io  X4

E:--------------------------------|
B:--------------------------------|
G:--------------------------------|
D:------------------4-4-4---------|
A:----------4-7------------5------|
E:--5-5-5--------------------5----|     x2

E:----------------------------------------------------------|
B:----------------------------------------------------------|
G:----------------------------------------------------------|
D:-------------------------------4-4-4-4-4-4-4-4------------|
A:----------4-7---------4-7-------------------------5-------|
E:--5-5-5------5-5-5---------------------------------5------|   x2

El dia enterooo...
A            D
porroro...io io io io  X4
A
io io io io
D
io io io io   X2
Suggest correction
Give kudos to tab author, rate the tab!
1 2 3 4 5
comments
print report bad tab
guest
You may want to rate the tab now too:
select rating
Wanna post a correction for this tab? Suggest correction