Oops, an error
Loading. Please wait.

Sin Saber De Vos Chords

version 2
version 2

Whole song

27 views 1 this week
no commentswrite comment
1 2 3 4 5
3 more votes to show rating
add to favorites
launch autoscroll
font size
0
reset
transpose
0
reset
simplify chords
display chords
guitar tuner
×
Best way to learn
"Sin Saber De Vos"
Autoscroll
slow
fast
+/-
esc
set tempo
stop
Intro

                           D
e||--------------------------
B||------10----8----7--------
G||---11-----9----7----------
D||--------------------------
A||--------------------------
E||--------------------------

                           A
e||--------------------------
B||------10----8----7--------
G||---11-----9----7----------
D||--------------------------
A||--------------------------
E||--------------------------

                   A               D
e||-----------------------------------
B||-----------------------------------
G||----6-7-9-9-7-6------6-7-9-9-7-6-7-
D||--7-------------7--7---------------
A||-----------------------------------
E||-----------------------------------


G             D      G                      D
Ya se hizo de noche. Tu madre se volvió a enojar
G                         B
Que no estés afuera nena, ese es un gran problema
A                    G                 D
No te escucha a vos, no te escucha a vos
G                    D     G                          D
Quizás intente meter llave a las puertas de tu habitación
G                           B
Es que ella no se da cuenta que la mochila ya está llena
A               G                D
Ventana me voy, vía ventana adiós
G                    D   G                      D
Y hace cuanto pasa esto? Hace mucho que ella huyó?
G                            B
Es que a nadie le importaba, cuál era su gran problema
A                G             D
Llevar su dolor, llevar su dolor

Quizás no vuelva en la mañana, quizás no vuelva nunca más
Y que vuelva a ver su rostro, y después de tanto tiempo
Sin saber de vos, sin saber de vos
G#/A              G#/A
Sin saber de vos, sin saber de vos
G               A
Faltaste tanto tiempo
Me merezco yo, me merezco yo
Castigo y tormento
Que si estas bien, que si estas mal
Ya no importa nada nena, que sea tu dolor tu pena
Corre sin razón, corre sin razón
Sin saber de vos, sin saber de vos
Quemaste tanto humo sin parar
Que te hiciste a vos, que te hiciste a vos
Te diste tanta libertad
Y ya se hizo de noche, habrá que descansar
Encontraste lo que buscabas?
Cielo abierto en tu pecho.
Tu felicidad, tu felicidad
Tu felicidad, tu felicidad.
Suggest correction
Give kudos to tab author, rate the tab!
1 2 3 4 5
comments
print report bad tab
guest
You may want to rate the tab now too:
select rating
Wanna post a correction for this tab? Suggest correction