Oops, an error
Loading. Please wait.

Lo Siento Tab

20 views 1 this week
no commentswrite comment
1 2 3 4 5
3 more votes to show rating
add to favorites
×
Save as Personal and add changes to this tab that will be seen only by you. Learn more ›
×
You can save this tab as Personal to edit and correct it or add notes. All changes will be seen only by you. Learn more »
save as personal
new!
launch autoscroll
font size
0
reset
how to read this tab
guitar tuner
Autoscroll
slow
fast
+/-
esc
set tempo
stop
1ª Guitarra

(0:10)

E-----------------------------------------------------|
B-----------------------------------------------------|
G--14-/-5----7--5--7--4---5--4--5---------------------|
D--x--/-x----x--x--x--x---x--x--x---7----5----3----5--|
A--12-/-3----5--3--5--2---3--2--3---x----x----x----x--|
E-----------------------------------5----3----1----3--|

(0:21)

E--------------------------------------------------|
B--------------------------------------------------|
G--5----7--5--7--9----10--9--10--17----16--14--12--|
D--x----x--x--x--x----x---x--x---x-----x---x---x---|
A--3----5--3--5--7----8---7--8---15----14--12--10--|
E--------------------------------------------------|x2

(0:42) (x2)

E---------------------------------------------------|
B---------------------------------------------------|
G--12-------12-------12----12-------12--------12----|
D-----10-10----10-10----10----10-10----10-10-----10-|
A---------------------------------------------------|
E---------------------------------------------------|

E----------------------------------------|
B----------------------------------------|
G-12-----12-----12---12-----12-----12----|
D----9-9----9-9----9----9-9----9-9----9--|
A----------------------------------------|
E----------------------------------------|

E-----------------------------------|
B--10--12--13--12--10---------------|
G----------------------12--10--12b--|
D-----------------------------------|
A-----------------------------------|
E-----------------------------------|

(1:02)

E-----------------------|
B-----------------------|
G--5----4---------------|
D--5----4----7----3--5--|
A--3----2----7----3--5--|
E------------5----1--3--|x2

(1:22)

E--------------------------------------------------|
B--------------------------------------------------|
G--5----7--5--7--9----10--9--10--17----16--14--12--|
D--x----x--x--x--x----x---x--x---x-----x---x---x---|
A--3----5--3--5--7----8---7--8---15----14--12--10--|
E--------------------------------------------------|x2

(1:43)

E--15-------15-------15----15-------15-------15----|
B-----13-13----13-13----13----13-13----13-13----13-|
G--------------------------------------------------|
D--------------------------------------------------|
A--------------------------------------------------|
E--------------------------------------------------|

E-15-------15-------15----15-------15-------15-----|
B----12-12----12-12----12----12-12----12-12----12--|
G--------------------------------------------------|
D--------------------------------------------------|
A--------------------------------------------------|
E--------------------------------------------------|

E-----------------------------------|
B--10--12--13--12--10---------------|
G----------------------12--10--12b--|
D-----------------------------------|
A-----------------------------------|
E-----------------------------------|

E--15-------15-------15----15-------15-------15----|
B-----13-13----13-13----13----13-13----13-13----13-|
G--------------------------------------------------|
D--------------------------------------------------|
A--------------------------------------------------|
E--------------------------------------------------|

E-15-------15-------15----15-------15-------15-----|
B----12-12----12-12----12----12-12----12-12----12--|
G--------------------------------------------------|
D--------------------------------------------------|
A--------------------------------------------------|
E--------------------------------------------------|

E--------------10------10--12--13--12--13--15--13--17-----15--|
B--10--12--13------13-----------------------------------------|
G-------------------------------------------------------------|
D-------------------------------------------------------------|
A-------------------------------------------------------------|
E-------------------------------------------------------------|

(2:06)

E------------------------------------|
B------------------------------------|
G--9----10--9--10--17----16--14--12--|
D--x----x---x--x---x-----x---x---x---|
A--7----8---7--8---15----14--12--10--|
E------------------------------------|

E--------------------------------------------------|
B--------------------------------------------------|
G--5----7--5--7--9----10--9--10--17----16--14--12--|
D--x----x--x--x--x----x---x--x---x-----x---x---x---|
A--3----5--3--5--7----8---7--8---15----14--12--10--|
E--------------------------------------------------|x3

(2:46)

E------|
B------|
G--5---|
D--x---|
A--3---|
E------|


2ª Guitarra: Va todo el rato con esto excepto en los coros

E-----------------------|
B-----------------------|
G--5----4---------------|
D--5----4----7----3--5--|
A--3----2----7----3--5--|
E------------5----1--3--|x2

En los coros (Y lloré...),(Espero no dañar...) se hace esto

E-----------------------|
B-----------------------|
G--5--------------------|
D--5----2----7----3--5--|
A--3----2----7----3--5--|
E-------0----5----1--3--|

Eso es todo bye
Suggest correction
Give kudos to tab author, rate the tab!
1 2 3 4 5
comments
print report bad tab
guest
Wanna post a correction for this tab? Suggest correction