Oops, an error
Loading. Please wait.

Mi Error Bass

16 views 1 this week
no commentswrite comment
1 2 3 4 5
3 more votes to show rating
add to favorites
launch autoscroll
font size
0
reset
guitar tuner
×
Best way to learn
"Mi Error"
Autoscroll
slow
fast
+/-
esc
set tempo
stop
================================
Afinación: E (Standard)

~ - Dejar sonar
x - Silencio despues de tocar
X - Nota muerta
/ - Glissando

================================

=========
-Bass.
=========


.INTRO: 00:01min.
G||-11-------11-------11-------11-------14----14----|
D||----12-12----12-12----12-12----12-12----12----12-|
A||-------------------------------------------------|
E||-------------------------------------------------|

G||-11-----11-----11-----11-----14----14----|
D||----9-9----9-9----9-9----9-9----12----12-|
A||-----------------------------------------|
E||-----------------------------------------|

G||-------------------------------------14----14----|
D||-14-------14-------14-------14----------12----12-|
A||----12-12----12-12----12-12----12-12-------------|
E||-------------------------------------------------|

G||-----------------------------X-|
D||-12-------12-------12~-------X-|
A||----10-10----10-10-----------X-|
E||-----------------------------X-|


.INTRO2:  00:10min.
G||-----------------------------------------------------------------|
D||-----------------------------------------------------------------|
A||-5555x-555x-5000-2222x-222x-5550-0000x-000x-5550-----------------|
E||-------------------------------------------------3333x-333x-2/5~-|

G||---------------------------------------------------|
D||---------------------------------------------------|(x2)
A||-5-5-5-5-500-2-2-2-2-555-0-0-0-0-550---------------|
E||-------------------------------------3-3-3-3-2/555-|


.VERSO: 00:40min.    "Acá se termina mi simpatía y buen humor..."
G||------------------------------------|
D||------------------------------------|
A||-5555x-55x55x-5555------------------|
E||-------------------33x33x33x33x3333-|

G||------------------------------------|
D||------------------------------------|(X3)
A||-55x55x55x55x-5555------------------|
E||-------------------33x33x33x33x3333-|


.CORO: 00:59min.    "Esta vez el dolor..."
G||------------------------------------------------------------|
D||------------------------------------------------------------|
A||-22-222-0-0-000-55-555---------22-222-0-0-000---------------|
E||-----------------------3-3-333----------------33-3333-3-333-|

G||--------------------------------------------------------------------|
D||--------------------------------------------------------------------|
A||-22-222-0-0-000-55-555---------22-222-0-0-000-----------------------|
E||-----------------------3-3-333----------------3333333333-5555555555-|


.PUENTE: 01:21min.
G||-----------------------------------------------------------------|
D||------4~--------------4~--------------4~--------------4~---------|
A||-5-5-5---2-2-2---5-5-5---2-2-2---5-5-5---2-2-2---5-5-5---2-2-2---|
E||--------------5~--------------5~--------------5~--------------5~-|


.VERSO2: 01:31min.    "Lo siento, ese es mi error..."
G||--------------------------------------------------------------------|
D||--------------------------------------------------------------------|
A||-222222222222222------------------5555555555555555-0000000000000000-|
E||-----------------3333333333333333-----------------------------------|

G||--------------------------------------------------------------------|
D||-----------------------------------------------------------5/7-7777-|
A||-222222222222222------------------5555555555555555-00000000---------|
E||-----------------3333333333333333-----------------------------------|


.CORO2: 01:51min.    "Lo siento, lo siento... ese es mi error..."
G||---------------------------------------------------------------|
D||---------------------------------------------------------------|
A||-5-5-5555-5-555-2-2-2222-2-222---------------------------------|
E||-------------------------------5-5-5555-5-555-3-3-3333-3-3-333-|

G||---------------------------------------------------------------|
D||---------------------------------5-5-5555-5-555-7-7-7777-7-777-|
A||-5-5-5555-5-555-5/9-9-9999-9-999-------------------------------|
E||---------------------------------------------------------------|


.PUENTE2: 02:10min.
G||-----------------------------------------------------------------|
D||-----------------------------------------------------------------|
A||-5555x-555x-5/9--2222x-222x-5550-0000x-000x-5550-----------------|
E||-------------------------------------------------3333x-333x-2/5~-|

G||---------------------------------------------------|
D||---------------------------------------------------|
A||-5-5-5-5-500-2-2-2-2-555-0-0-0-0-550---------------|
E||-------------------------------------3-3-3-3-2/555-|


.VERSO2: 02:30min.    "Lo siento, ese es mi error..."
G||--------------------------------------------------------------------|
D||--------------------------------------------------------------------|
A||-222222222222222------------------5555555555555555-0000000000000000-|
E||-----------------3333333333333333-----------------------------------|

G||--------------------------------------------------------------------|
D||-----------------------------------------------------------5/7-7777-|
A||-222222222222222------------------5555555555555555-00000000---------|
E||-----------------3333333333333333-----------------------------------|


.CORO2: 02:50min.    "Lo siento, lo siento... ese es mi error..."
G||---------------------------------------------------------------|
D||---------------------------------------------------------------|
A||-5-5-5555-5-555-2-2-2222-2-222---------------------------------|
E||-------------------------------5-5-5555-5-555-3-3-3333-3-3-333-|

G||---------------------------------------------------------------|
D||---------------------------------5-5-5555-5-555-7-7-7777-7-777-|
A||-5-5-5555-5-555-5/9-9-9999-9-999-------------------------------|
E||---------------------------------------------------------------|

     03:10min.    "Lo siento, lo sieto... ese es mi error..."
G||---------------------------------------------------------------|
D||---------------------------------------------------------------|
A||-5-5-5555-5-555-2-2-2222-2-222---------------------------------|
E||-------------------------------5-5-5555-5-555-3-3-3333-3-3-333-|

     03:19min.    "Lo siento, lo siento, lo siento..."
G||---------------------------------------------------------------|
D||---------------------------------5-5-5555-5-555-7-7-7777-7-777-|
A||-5-5-5555-5-555-5/9-9-9999-9-999-------------------------------|
E||---------------------------------------------------------------|

     03:29min.    "Ese es mi error..."
G||-----------------------------------||
D||-7-7-7777-7-777-4-5-7--------------||
A||----------------------00x-0x0x-05~-||
E||-----------------------------------||


Transcripción de: Jean Alexander Delgadillo Olivares.
Correo: jean_alexander_07@

----------|J & C|----------
Suggest correction
Give kudos to tab author, rate the tab!
1 2 3 4 5
comments
print report bad tab
guest
You may want to rate the tab now too:
select rating
Wanna post a correction for this tab? Suggest correction