Oops, an error
Loading. Please wait.

Prisionero Del Dolor Bass Tab

6 views 1 this week
no commentswrite comment
1 2 3 4 5
3 more votes to show rating
add to favorites
launch autoscroll
font size
0
reset
guitar tuner
×
Best way to learn
"Prisionero Del Dolor"
Autoscroll
slow
fast
+/-
esc
set tempo
stop
Esta es la versión del disco Viejas y nuevas tragedias porque la otra versión
de esta canción (más antigua) se toca 2 tonos más bajo =)

G--------------------------------|
D--------------------------------|
A--2-----------------------------|
E--------------------------------|

Verso: 'Ahora que estás...'

G---------------------------------|----------------------------------|
D---------------------------------|-4-4-4-4-4-4-4-4-4-4-4-4-4-4-4-4--|
A-4-4-4-4-4-4-4-4-4-4-4-4-4-4-4-4-|----------------------------------|
E---------------------------------|----------------------------------|

G------------------------|----------------------------------|
D------4-----------4-----|----------------------------------|
A-2-2------2--1-1------1-|----------------------------------|
E------------------------|-4-4-4-4-4-4-4-4-4-4-4-4-4-4-4-4--|

G---------------------------------|----------------------------------|
D---------------------------------|-4-4-4-4-4-4-4-4-4-4-4-4-4-4-4-4--|
A-4-4-4-4-4-4-4-4-4-4-4-4-4-4-4-4-|----------------------------------|
E---------------------------------|----------------------------------|

G---------------------------------|-----|
D-6-6---6-8-8---8-6-6---6-8-8---8-|-----|
A---------------------------------|--2--|
E---------------------------------|-----|

G---------------------------------|----------------------------------|
D---------------------------------|-4-4-4-4-4-4-4-4-4-4-4-4-4-4-4-4--|
A-4-4-4-4-4-4-4-4-4-4-4-4-4-4-4-4-|----------------------------------|
E---------------------------------|----------------------------------|

G------------------------|----------------------------------|
D------4-----------4-----|----------------------------------|
A-2-2------2--1-1------1-|----------------------------------|
E------------------------|-4-4-4-4-4-4-4-4-4-4-4-4-4-4-4-4--|

G---------------------------------|----------------------------------|
D---------------------------------|-4-4-4-4-4-4-4-4-4-4-4-4-4-4-4-4--|
A-4-4-4-4-4-4-4-4-4-4-4-4-4-4-4-4-|----------------------------------|
E---------------------------------|----------------------------------|

G------4----------4----------4----------4----|----4-----8/9-9-9--9-----|
D-6-6-----6--5-5-----5--4-4-----4--3-3-----3-|-2-----2-----------------|
A--------------------------------------------|----------------------7--|
E--------------------------------------------|-------------------------|

Solo: Todo 2 veces

G------------------9-8------------|------------------9-8----------------|
D----------------------9----------|----------------------9--------------|
A------------------------9-9-9-9--|-6-6-6-6-6-6-6-6--------10-10-10-10--|
E-7-7-7-7-7-7-7-7-----------------|-------------------------------------|

G-------8-6------------------6-6-6-6-6-6-6--|
D---6-9-----9-8-8-8-8-8-8-8-----------------|
A-7-----------------------------------------|
E-------------------------------------------|

Final :

G------4----------4----------4----------4----|----4-----8/9-9-9--9-----|
D-6-6-----6--5-5-----5--4-4-----4--3-3-----3-|-2-----2-----------------|
A--------------------------------------------|----------------------7--|
E--------------------------------------------|-------------------------|x2

G-----|
D-----|
A--2--|
E-----|
Suggest correction
Give kudos to tab author, rate the tab!
1 2 3 4 5
comments
print report bad tab
guest
You may want to rate the tab now too:
select rating
Wanna post a correction for this tab? Suggest correction