Oops, an error
Loading. Please wait.

The Pogo Tab

31 views 1 this week
no commentswrite comment
1 2 3 4 5
3 more votes to show rating
add to favorites
launch autoscroll
font size
0
reset
how to read this tab
guitar tuner
×
Best way to learn
"The Pogo"
Autoscroll
slow
fast
+/-
esc
set tempo
stop
Hola a toos de nuevo, este si ke esta weno
el ke habia mandao anteriormente tenia algunos
errores y las guitarras estaban mal kolokadas XP.
Le doy las gracias a  ke me ayudo
arto a korregir la kancion para ke kedara
komo lo ke kedo XD...
la 1ºguitarra es la ke esta arriba
y la 2ºguitarra la ke esta abajo (es un poko
obio pero no faltan ...)jajajja

.INTRO:
***toka solo la 1ºguitarra:
|--------------------------------------|
|-3----3----3----3----3----3----2----2-|
|--------------------------------------|
|---4----4----5----5----0----0----2----|
|----2----2----5----5----0----0----0---|
|--------------------------------------|

***ahora entra la 2ºguitarra:
|-2----2----3----3----2----2----0----0----|
|---3----3----3----3----3----3----2----2--|
|----4----4----4----4----2----2----2----2-|
|-----------------------------------------|
|-----------------------------------------|
|-----------------------------------------|
|                                         |--->x2
|-----------------------------------------|
|-----------------------------------------|
|-444444444-----------777777777-----------|
|-444444444-555555555-777777777-777777777-|
|-222222222-555555555-555555557-777777777-|
|-----------333333333-----------555555557-|


.VERSO:konfundido sin razon...
|------------------------------|
|------------------------------|
|--------------------4~--------|
|-5x-555-5-5x-555-5x-4~--------|
|-5x-555-5-5x-555-5x-2~--------|
|-5x-333-3-3x-333-3x-----------|
|                              |--->x2
|------------------------------|
|------------------------------|
|--------------------4-7--5-4~-|
|-5x-555-5-5x-555-5x-4-x--x-x~-|
|-5x-555-5-5x-555-5x-2-5--3-2~-|
|-5x-333-3-3x-333-3x-----------|

...sin intencion
|------------------------------|
|------------------------------|
|------------------------------|
|-5x-555-5-5x-555-5-7777777777-|
|-5x-555-5-5x-555-5-5555555555-|
|-5x-333-3-3x-333-3-5555555555-|
|                              |--->x1
|------------------------------|
|------------------------------|
|------------------------------|
|-5x-555-5-5x-555-5-7777777777-|
|-5x-555-5-5x-555-5-5555555555-|
|-5x-333-3-3x-333-3-5555555555-|


.KORO:las palabras ke no kieres escuchar...
|-2----2----3----3----2----2----0----0----|
|---3----3----3----3----3----3----2----2--|
|----4----4----4----4----2----2----2----2-|
|-----------------------------------------|
|-----------------------------------------|
|-----------------------------------------|
|                                         |--->x4
|-----------------------------------------|
|-----------------------------------------|
|-444444444-----------777777777-----------|
|-444444444-555555555-777777777-777777777-|
|-222222222-555555555-555555557-777777777-|
|-----------333333333-----------555555557-|


.PARTE ESPECIAL:y es igual...
|----------------------------------------|
|-----------------------------7/10--8-7v-|
|----------------------------------------|
|-55x-55x-55x-55x-5/7-/9~----------------|
|-55x-55x-55x-55x-5/x-/x~----------------|
|-33x-33x-33x-33x-3/5-/7~----------------|
|                                        |------|
|----------------------------------------|      |
|----------------------------------------|      |
|-77x-77x-77x-77x-7/9-/11~---------------|      |
|-77x-77x-77x-77x-7/x-/-x~---------------|      |
|-55x-55x-55x-55x-5/7-/-9~---------------|      |       (en la ultima
|----------------------------------------|      |       repeticion
                                                |--->x2 la 2º guitarra
|-----------------------------10/14--12-10v-|   |       deja sonando
|-------------------------------------------|   |       en D5)
|-------------------------------------------|   |
|-55x-55x-55x-55x-5/7-/9~-------------------|   |
|-55x-55x-55x-55x-5/x-/x~-------------------|   |
|-33x-33x-33x-33x-3/5-/7~-------------------|   |
|                                           |---|
|-------------------------------------------|
|-------------------------------------------|
|-77x-77x-77x-77x-7/9-/11~------------------|
|-77x-77x-77x-77x-7/x-/-x~------------------|
|-55x-55x-55x-55x-5/7-/-9~------------------|
|-------------------------------------------|


***luego se ase esto(eskuchen bien la 1º guitarra):
|-----------------------------------|
|-----------------------------------|
|-7776667677766676-7776667677766676-|
|-xxxxxxxxxxxxxxxx-xxxxxxxxxxxxxxxx-|
|-5554445455544454-5554445455544454-|
|-----------------------------------|
|                                   |--->x3
|-----------------------------------|
|-----------------------------------|
|-----------------------------------|
|-5555555555555555-9999999999999999-|
|-5555555555555555-9999999999999999-|
|-3333333333333333-7777777777777777-|

|---------------------------|
|---------------------------|
|-7776667677766676----------|
|-xxxxxxxxxxxxxxxx-77777777-|
|-5554445455544454-55555555-|
|------------------55555555-|
|                           |--->x1(ese A5 de las dos
|---------------------------|       guitarras va kon palm mute)
|---------------------------|
|---------------------------|
|-5555555555555555-77777777-|
|-5555555555555555-55555555-|
|-3333333333333333-55555555-|


.KORO:las palabras ke no kieres escuchar...
|-2----2----3----3----2----2----0----0----|
|---3----3----3----3----3----3----2----2--|
|----4----4----4----4----2----2----2----2-|
|-----------------------------------------|
|-----------------------------------------|
|-----------------------------------------|
|                                         |--->x4
|-----------------------------------------|
|-----------------------------------------|
|-444444444-----------777777777-----------|
|-444444444-555555555-777777777-777777777-|
|-222222222-555555555-555555557-777777777-|
|-----------333333333-----------555555557-|


no kompraran...
|-----------------|
|---3-------3-----|
|-----------------|
|-4----4--4---4-x-|
|-----------------|
|-----------------|

Eso es todo,ahora si esta kompletita XD
eskuchenla muy bien porke hay partes en donde
se ve un poko enrredada pero es super facil
sakarla XD.
Komo dije al principio del tab,saludos
a  (gracias por la ayudita)
Y komo no mandarle saludos a mi ermana y a toos mis amigos
y amigas ke me kieren...y a los ke no, me dan lo mismo xp


Martes 16 de enero de 2007/ 18:46hrs.
Suggest correction
Give kudos to tab author, rate the tab!
1 2 3 4 5
comments
print report bad tab
guest
You may want to rate the tab now too:
select rating
Wanna post a correction for this tab? Suggest correction