Oops, an error
Loading. Please wait.

Neccesary Bloodshed Tab

version 1
version 1

Whole song

608 views 1 this week
no commentswrite comment
1 2 3 4 5
please rate
add to favorites
launch autoscroll
font size
0
reset
how to read this tab
guitar tuner
Autoscroll
slow
fast
+/-
esc
set tempo
stop
Help us to improve Ultimate-Guitar.com Take our survey!
×
Author
Difficulty
Tuning
intermediate
C G C F A D
Intro


   Guitar 1
        D|-------------------------------------|
        A|-------------------------------------|
        F|-------------------------------------|
        C|-------------------------------------|
        G|-------------------------------------|
        C|-3p2-2-2-4p2-2-2-3p2-2-2-4p2-5p2-4p2-|
               . .     . .     . .
        D|----------------------------------| x2
        A|----------------------------------|
        F|----------------------------------|
        C|----------------------------------|
        G|----------------------------------|
        C|-2-2-4p2-2-2-3p2-2-2-4p2-5p2-4p2--|
           . .     . .     . .
fill    D|---------------|
        A|---------------|
        F|---------------|
        C|---------------|
        G|-------------0-|
        C|-000-000-000-0-|
           ... ... ...

verse 1 D|-------------------------------------|
        A|-------------------------------------|
        F|-------------------------------------|
        C|-------------------------------------|
        G|-------------------------------------|
        C|-3p2-222-4p2-222-3p2-222-4p2-5p2-4p2-|
               ...     ...     ...
        D|----------------------------------| x2
        A|----------------------------------|
        F|----------------------------------|
        C|----------------------------------|
        G|----------------------------------|
        C|-222-4p2-222-3p2-222-4p2-5p2-4p2--|
           ...     ...     ...

  fill  D|---------------|
        A|---------------|
        F|---------------|
        C|---------------|
        G|-------------0-|
        C|-000-000-000-0-|    repeat all of this except the inro
           ... ... ...

        D|----------------------------------------------------| x2
        A|----------------------------------------------------|
        F|----------------------------------------------------|
        C|----------------------------------------------------|
        G|-2p0------2p0------2p0------------2p0---------------|
        C|----0h2------0h2------0h2-00000000----0h2-00000000--|
                                    ........        ........

     D|-------------------------------------------------------------| x2
     A|-------------------------------------------------------------|
     F|-------------------------------------------------------------|
     C|-------------------------------------------------------------|
     G|-2p0------------2p0-------------2p0-----------2p0------------|
     C|----0h2-0-0-0-0----0h2-0-0-0-0-----0h2-000-000---0h2-000-000-|               . . 
.        . . . .         ... ...       ... ...


chorus D|----------------------| x2
       A|----------------------|
       F|----------------------|
       C|-0-----1-----0-----3--|
       G|-0-----1-----0-----3--|
       C|-0-----1-----0-----3--|
          let notes ring


verse 2 D|-------------------------------------|
        A|-------------------------------------|
        F|-------------------------------------|
        C|-------------------------------------|
        G|-------------------------------------|
        C|-3p2-222-4p2-222-3p2-222-4p2-5p2-4p2-|
               ...     ...     ...
        D|----------------------------------| x2
        A|----------------------------------|
        F|----------------------------------|
        C|----------------------------------|
        G|----------------------------------|
        C|-222-4p2-222-3p2-222-4p2-5p2-4p2--|
           ...     ...     ...

  fill  D|---------------------------------|
        A|---------------------------------|
        F|---------------------------------|
        C|---------------------------------|
        G|---------------------------------|
        C|-000-000-000-000-000-000-000-000-| repeat all of this
           ... ... ... ... ... ... ... ...

then this D|-------------------------------------|
          A|-------------------------------------|
          F|-------------------------------------|
          C|-------------------------------------|
          G|-------------------------------------|
          C|-3p2-2-2-4p2-2-2-3p2-2-2-4p2-5p2-4p2-|

          D|----------------------------------| x2
          A|----------------------------------|
          F|----------------------------------|
          C|----------------------------------|
          G|----------------------------------|
          C|-2-2-4p2-2-2-3p2-2-2-4p2-5p2-4p2--|


  fill  D|-----------------------------------------------------------------|
        A|-----------------------------------------------------------------|
        F|-----------------------------------------------------------------|
        C|-----------------------------------------------------------------|
        G|-----------------------------------------------------------------|
        C|-000-000-000-000-000-000-000-000-222-222-222-222-222-222-222-222-|
           ... ... ... ... ... ... ... ... ... ... ... ... ... ... ... ...

chorus D|----------------------| x2
       A|----------------------|
       F|----------------------|
       C|-0-----1-----0-----3--|
       G|-0-----1-----0-----3--|
       C|-0-----1-----0-----3--|
          let notes ring

     Solo

         D|---------------------------------------------------|
         A|---------------------------------------------------|
         F|---------------------------------------------------|
         C|-7-9~-7/9-10-9-12-10-9-10-7-9~-7/9-/14-10-9-10p9\7-|
         G|---------------------------------------------------|
         C|---------------------------------------------------|

         D|------------------------------------------------------|
         A|------------------------------------------------------|
         F|------------------------------------------------------|
         C|-7-9~-7/9-10p9h12-10-9-10-7-9~-7/9-/14-10-9-10-9-7-5~-|
         G|------------------------------------------------------|
         C|------------------------------------------------------|

       Guitar 1 plays     Guitar 2

        D|--------- x8         D|------------ x4 then D|------------------| x4
        A|---------            A|------------         A|------------------|
        F|---------            F|------------         F|------------------|
        C|---------            C|-------------        C|------------------|
        G|---------            G|-------------        G|------------------|
        C|-0-0-----            C|-----000-----        C|-----000-0-0-0-0--|
           . .                        ...                    ... . . . .


Both Guitars

        D|------------------| X8
        A|------------------|
        F|------------------|
        C|------------------|
        G|------------------|
        C|-----000-0-0-0-0--|
               ... . . . .


       Then
        D|---------------| x8
        A|---------------|
        F|---------------|
        C|-2p0-----------|
        G|----0h2--------|
        C|-------000-000-|

        D|----------------------------------------------------| x2
        A|----------------------------------------------------|
        F|----------------------------------------------------|
        C|----------------------------------------------------|
        G|-2p0------2p0------2p0------------2p0---------------|
        C|----0h2------0h2------0h2-00000000----0h2-00000000--|
                                    ........        ........

     D|-------------------------------------------------------------| x2
     A|-------------------------------------------------------------|
     F|-------------------------------------------------------------|
     C|-------------------------------------------------------------|
     G|-2p0------------2p0-------------2p0-----------2p0------------|
     C|----0h2-0-0-0-0----0h2-0-0-0-0-----0h2-000-000---0h2-000-000-|
               . . . .        . . . .         ... ...       ... ...


        D|-------------------------| x4
        A|-------------------------|
        F|-------------------------|
        C|-------------------------|
        G|-2p0------2p0------------|
        C|----0h2~----0h2-0-0-0-0--|
                          . . . .

          Thats all of it. If theres any mistakes tell me.
          garrettcrosby@hotmail.com God bless!
Suggest correction
Give kudos to tab author, rate the tab!
1 2 3 4 5
comments
print report bad tab
guest
You may want to rate the tab now too:
select rating
Please do not post tabs as comments. Select "correction" instead!