Oops, an error
Loading. Please wait.

To The Church Bass Tab

version 1
version 1

Whole song

Interactive

182 views 1 this week
no commentswrite comment
1 2 3 4 5
please rate
add to favorites
launch autoscroll
font size
0
reset
guitar tuner
Tab Pro tools
  • play this tab
  • loop segment
  • change instrument
  • show fretboard
  • metronome
×
Best way to learn
"To The Church"
Autoscroll
slow
fast
+/-
esc
set tempo
stop
Contributor
Difficulty
Tuning
intermediate
C G C F A D
-------------------------------------------------------------------------------
			     To the Church - Sinai Beach
-------------------------------------------------------------------------------

Tabbed By : execution_666

I tabbed the guitar for this song. So here's the bass.
The bass player uses a 5 string, but you can down-tune a 4 sting. 
You can also get away with tuning the 4th string to "C" (CADG)

Tuning: Drop C (CGCF)


Intro (after the techno and drums): 00:15 - 00:29
F|-------------------------------------------------------------------|
C|-------------------------------------------------------------------|
G|-------------------------------------------------------------------|
C|-0-0-0-0--3-3-3-3--1-1-1-1--0-0-0-0--8-8-8-8--5-5-5-5--------------|

Intro Break: 00:29 - 00:39
F|-----------------------------------------|
C|-----------------------------------------|
G|------REST------REST-----REST------------|
C|-1-2-------3-4-------1-2------3-4--------|


Verse: 00:39 - 1:00
F|--------------------------------------|-----------------|
C|--------------------------------------|-----------------|
G|--------------------------------------|-----------------|
C|-1-2--0-0--3-4--0-0--1-2--8-7---------|--3-2--0--8-7----|


Chorus: 1:00 - 1:18
F|----------------------------------------------------------------|
C|----------------------------------------------------------------|
G|----------------------------------------------------------------|
C|-0~~~--3-8-0~~~--5-1-0~~~--3-1-0~~~--5-1-0~~~--3-1-0~~~-5-1-----|


Verse: 1:18 - 1:36
F|--------------------------------------|
C|--------------------------------------|
G|--------------------------------------|
C|-1-2--0-0--3-4--0-0--1-2--8-7---------|

Break: 1:36 - 2:01
F|--------------------------------------------------------|
C|--------------------------------------------------------|
G|------REST-------------------REST-----------------------|
C|-1-2--------000000--8-7--1-2------000000--3-1-1-2-3-----|

Verse: 2:01 - 2:08
F|--------------------------------------|-----------------|
C|--------------------------------------|-----------------|
G|--------------------------------------|-----------------|
C|-1-2--0-0--3-4--0-0--1-2--8-7---------|--3-2--0--8-7----|

Chorus: 2:08 - 2:28
F|----------------------------------------------------------------|
C|----------------------------------------------------------------|
G|----------------------------------------------------------------|
C|-0~~~--3-8-0~~~--5-1-0~~~--3-1-0~~~--5-1-0~~~--3-1-0~~~-5-1-----|


Break: 2:28 - 2:43 
F|-------------------------------------------------------------------|
C|-------------------------------------------------------------------|
G|-------------------------------------------------------------------|
C|-0-0-0-0--3-3-3-3--1-1-1-1--0-0-0-0--8-8-8-8--5-5-5-5--------------|

Break (second part): 2:43 - 3:00
F|------------------------------------------------|---------------|
C|------------------------------------------------|---------------|
G|------------------------------------------------|---------------|
C|-00000--333333--111111--000000--888888--555555--|-1-2--1-2-1-0--|

3:00 - 3:03
F|-----------------------|
C|-----------------------|
G|-----------------------|
C|-1-2--1-2-1-0----------|


Break: 3:03 - 3:35
F|---------------------------------------------|--------------|
C|---------------------------------------------|--------------|
G|---------------------------------------------|--------------|
C|-1-2-0--1-2-4-3-0--1-2-0--0-0-0--1-2-6-5-0---|--0~~~~~~~~---|

Break: 3:35 - 3:52
F|---------------------------------|------------------|
C|---------------------------------|------------------|
G|---------------------------------|------------------|
C|-0~~-3-8-0~~--5-1-0~~--3-8-0~~---|-3333--1111-------|

3:52 - 4:07
F|-----------------------------------------------------------|
C|-----------------------------------------------------------|
G|-----------------------------------------------------------|
C|-0-0-0-0--3-3-3-3-1-1-1-1--0-0-0-0--8-8-8-8--5-5-5-5-------|

4:07 - 4:15
F|----------------------------------------------------|
C|----------------------------------------------------|
G|----------------------------------------------------|
C|-00000--33333--11111--00000--88888--55555-----------|

4:15 - 4:30
F|---------------------------------------------------------------------------|
C|---------------------------------------------------------------------------|
G|---------------------------------------------------------------------------|
C|-0-0-0-0-0--3-3-3-3-3-1-1-1-1-1--0-0-0-0-0--3-3-3-3-3-1-1-1-1-1------------|

Outro: 4:30 - 4:50
F|------------------------------------|----------------|
C|------------------------------------|----------------|
G|------------------------------------|----------------|
C|-0~~~--3~~~--1~~~--0~~~--8~~~--5~~~-|--0~~~~~~~~~----|

Ok, so like I said in the guitar tab, 
listen to the song for exact timing and rhythm. 
Enjoy. 


| /  slide up
| \  slide down
| h  hammer-on
| p  pull-off
| ~  vibrato
| +  harmonic
| x  Mute note
===============================================================================
comments
We did not receive enough feedback on this tab! Please rate:
print report bad tab
1 2 3 4 5
I want to post or [tab]
guest
You may want to rate the tab now too:
select rating
Please do not post tabs as comments. Select "correction" instead!