Oops, an error
Loading. Please wait.

To The Church Tab

version 1
version 1

Intro

Whole song

Interactive

198 views 1 this week
1 commentread comment
1 2 3 4 5
please rate
add to favorites
launch autoscroll
font size
0
reset
how to read this tab
guitar tuner
Autoscroll
slow
fast
+/-
esc
set tempo
stop
Help us to improve Ultimate-Guitar.com Take our survey!
×
     INTRO

1|---------------------------------------------------------|--|
2|---------------------------------------------------------|--|
3|--0000000000000000-00000000-00000000-0000000000000000----|--|
4|--0000000000000000-00000000-00000000-0000000000000000----|--|
5|--2222222222222222-22222222-33333333-2222222222222222----|--|
6|--0000000000000000-33333333-11111111-0000000000000000----|--|


--|------------------------------------------------------------|
--|------------------------------------------------------------|
--|--00000000-00000000-0000000000000000-00000000-00000000------|
--|--00000000-00000000-0000000000000000-00000000-00000000------|
--|--55555555-33333333-2222222222222222-22222222-33333333--|---|
--|--33333333-11111111-0000000000000000-33333333-11111111--|---|


--|-------------------------------------|
--|-------------------------------------|
--|--0000000000000000-00000000-00000000-|
--|--0000000000000000-00000000-00000000-|
--|--2222222222222222-55555555-33333333-|
--|--0000000000000000-33333333-11111111-|


1|-----------------------------------------------------------------------|--|
2|-----------------------------------------------------------------------|--|
3|-----------------------------------------------------------------------|--|
4|-----------------------------------------------------------------------|--|
5|--23---------34---------23---------34---------23---------34---------23-|--|
6|--01-0-0-0-0-02-0-0-0-0-01-0-0-0-0-04-000-000-01-0-0-0-0-02-0-0-0-0-01-|--|

--|---------------------|
--|---------------------|
--|---------------------|
--|---------------------|
--|----------34---------|
--|--0-0-0-0-02-000-000-|

1|------------------------------------------------------------|
2|------------------------------------------------------------|
3|------------------------------------------------------------|
4|------------------------------------------------------------|
5|----23-----34-----23-23-|----23-----34-----23-53------------|
6|0-0-01-0-0-02-0-0-01-31-|0-0-01-0-0-02-0-0-01-31------------|
Suggest correction
Give kudos to tab author, rate the tab!
1 2 3 4 5
comments
print report bad tab
1 comment total.
0 reply
Tias 181 wrote on May 6 2007, 07:34 am

and the tuning isss?

guest
You may want to rate the tab now too:
select rating
Please do not post tabs as comments. Select "correction" instead!