Oops, an error
Loading. Please wait.

To The Church Tab

version 1
version 1

Whole song

Interactive

468 views 1 this week
no commentswrite comment
1 2 3 4 5
3 more votes to show rating
add to favorites
launch autoscroll
font size
0
reset
how to read this tab
guitar tuner
Autoscroll
slow
fast
+/-
esc
set tempo
stop
Help us to improve Ultimate-Guitar.com Take our survey!
×
Ok im new at Guitar and i havent taken any lessons but i have a good ear for tone match.

This song is done in the Drop C tuning

 

Techno-ish sound first.
|-------------------------------------------------------------------------|
|-------------------------------------------------------------------------|
|-------------------------------------------------------------------------|
|----0~----3-1-0----8-3-0---(Repeat 2 times) ----0-1--1-3--3-5--1-0---(x2)|
|----0~----3-1-0----8-3-0----------------------0-1--1-3--3-5--1-0---------|
C|---0~----3-1-0----8-3-0----------------------0-1--1-3--3-5--1-0---------|

then into the verse. I'm working on it...

Chorus is similar to the inro.

Chorus
                          "and let us not loose compassion for those who.."
|-------------------------------------------------------------------------|
|-------------------------------------------------------------------------|
|-------------------------------------------------------------------------|
|--0~--5--1--0~--8--3--0----Repeat throughout the chorus------------------|
|--0~--5--1--0~--8--3--0--------------------------------------------------|
C|-0~--5--1--0~--8--3--0--------------------------------------------------|




yeah.. i know. im bad... but thats how it sounds.
Suggest correction
Give kudos to tab author, rate the tab!
1 2 3 4 5
comments
print report bad tab
guest
You may want to rate the tab now too:
select rating
Wanna post a correction for this tab? Suggest correction