Oops, an error
Loading. Please wait.

To The Church Tab

version 2
version 2

Whole song

Interactive

545 views 6 this week
no commentswrite comment
1 2 3 4 5
please rate
add to favorites
launch autoscroll
font size
0
reset
how to read this tab
guitar tuner
Autoscroll
slow
fast
+/-
esc
set tempo
stop
Help us to improve Ultimate-Guitar.com Take our survey!
×
Author
Difficulty
Tuning
intermediate
C G C G C E
-------------------------------------------------------------------------------
                             To the Church  - Sinai Beach
-------------------------------------------------------------------------------
Tabbed by: execution_666

Tuning: Drop C (CGCFAD)

I couldn't find the whole song.
So I decided to tab it myself. 

Intro (after the techno synth): 00:15 - 00:29
D|---------------------------------------------------------------------------|
A|---------------------------------------------------------------------------|
F|---------------------------------------------------------------------------|
C|-0-0-0-0--3-3-3-3--1-1-1-1--0-0-0-0--8-8-8-8--5-5-5-5----------------------|
G|-0-0-0-0--3-3-3-3--1-1-1-1--0-0-0-0--8-8-8-8--5-5-5-5----------------------|
C|-0-0-0-0--3-3-3-3--1-1-1-1--0-0-0-0--8-8-8-8--5-5-5-5----------------------|

Intro Break: 00:29 - 00:39
D|---------------------------------------------|
A|---------------------------------------------|
F|---------------------------------------------| (the X's are all open "0's")
C|-1-2-X-X-X-X--3-4--1-2--X-X-X-X--3-4---------|
G|-1-2-X-X-X-X--3-4--1-2--X-X-X-X--3-4---------|
C|-1-2-X-X-X-X--3-4--1-2--X-X-X-X--3-4---------|
PM     . . . .            . . . . 

Verse: 00:39 - 00:56
D|-----------------------------------------|
A|-----------------------------------------|
F|-----------------------------------------|
C|-1-2--0-0--3-4--0-0--1-2--8-7------------|
G|-1-2--0-0--3-4--0-0--1-2--8-7------------|
C|-1-2--0-0--3-4--0-0--1-2--8-7------------|
PM      . .       . . 

Pre-Chorus: 00:56 - 1:00
D|-----------------------|
A|-----------------------|
F|-----------------------|
C|-3-2--0--8-7-----------|
G|-3-2--0--8-7-----------|
C|-3-2--0--8-7-----------|

Chorus: 1:00 - 1:18
D|---------------------------------------------------------------------------|
A|---------------------------------------------------------------------------|
F|---------------------------------------------------------------------------|
C|-0~~--3--8--0~~--5--1--0~~--3--1--0~~--5--1--0~~--3--1--0~~--5--1----------|
G|-0~~--3--8--0~~--5--1--0~~--3--1--0~~--5--1--0~~--3--1--0~~--5--1----------|
C|-0~~--3--8--0~~--5--1--0~~--3--1--0~~--5--1--0~~--3--1--0~~--5--1----------|

Verse 2: 1:18 - 1:36
D|-----------------------------------------|
A|-----------------------------------------|
F|-----------------------------------------|
C|-1-2--0-0--3-4--0-0--1-2--8-7------------|
G|-1-2--0-0--3-4--0-0--1-2--8-7------------|
C|-1-2--0-0--3-4--0-0--1-2--8-7------------|
PM      . .       . . 


Break: 1:36 - 2:01
D|-------------------------------------------------------------------|
A|-------------------------------------------------------------------|
F|-------------------------------------------------------------------|
C|-1-2--X-X-X-X-00000-8-7--1-2--X-X-X-X-00000-3-1-1-2-3--------------|
G|-1-2--X-X-X-X-00000-8-7--1-2--X-X-X-X-00000-3-1-1-2-3--------------|
C|-1-2--X-X-X-X-00000-8-7--1-2--X-X-X-X-00000-3-1-1-2-3--------------|
PM      . . . .                 . . . .

2:01 - 2:06:
D|-----------------------------------------|
A|-----------------------------------------|
F|-----------------------------------------|
C|-1-2--0-0--3-4--0-0--1-2--8-7------------|
G|-1-2--0-0--3-4--0-0--1-2--8-7------------|
C|-1-2--0-0--3-4--0-0--1-2--8-7------------|
PM      . .       . . 

2:06 - 2:08:
D|-----------------------|
A|-----------------------|
F|-----------------------|
C|-3-2--0--8-7-----------|
G|-3-2--0--8-7-----------|
C|-3-2--0--8-7-----------|

Chorus 2:08 - 2:28:
D|---------------------------------------------------------------------------|
A|---------------------------------------------------------------------------|
F|---------------------------------------------------------------------------|
C|-0~~--3--8--0~~--5--1--0~~--3--1--0~~--5--1--0~~--3--1--0~~--5--1----------|
G|-0~~--3--8--0~~--5--1--0~~--3--1--0~~--5--1--0~~--3--1--0~~--5--1----------|
C|-0~~--3--8--0~~--5--1--0~~--3--1--0~~--5--1--0~~--3--1--0~~--5--1----------|

Break 2:28 - 2:43: 
D|---------------------------------------------------------------------------|
A|---------------------------------------------------------------------------|
F|---------------------------------------------------------------------------|
C|-0-0-0-0--3-3-3-3--1-1-1-1--0-0-0-0--8-8-8-8--5-5-5-5----------------------|
G|-0-0-0-0--3-3-3-3--1-1-1-1--0-0-0-0--8-8-8-8--5-5-5-5----------------------|
C|-0-0-0-0--3-3-3-3--1-1-1-1--0-0-0-0--8-8-8-8--5-5-5-5----------------------|

2:43 - 3:00
D|---------------------------------------------------------|------------------|
A|---------------------------------------------------------|------------------|
F|---------------------------------------------------------|------------------|
C|---------------------------------------------------------|-1-2--1-2-1-0-----|
G|---------------------------------------------------------|-1-2--1-2-1-0-----|
C|-000000000--33333333-11111111--00000000--888888-5555555--|-1-2--1-2-1-0-----|
Tremolo Pick the above


3:00 - 3:03
D|----------------------|
A|----------------------|
F|----------------------|
C|-1-2--1-2-1-0---------|
G|-1-2--1-2-1-0---------|
C|-1-2--1-2-1-0---------|


Break: 3:03 - 3:35
D|------------------------------------------------|-------------------|
A|------------------------------------------------|-------------------|
F|------------------------------------------------|-------------------|
C|-1-2-0--1-2-4-3-0--1-2-0--0-0-0--1-2-6-5-0------|-------0~~~~~~~~~~-|
G|-1-2-0--1-2-4-3-0--1-2-0--0-0-0--1-2-6-5-0------|-------0~~~~~~~~~~-|
C|-1-2-0--1-2-4-3-0--1-2-0--0-0-0--1-2-6-5-0------|-------0~~~~~~~~~~-|

(I think the synth might be guitar, I'll update later on)

Break: 3:35: 3:52
D|---------------------------------------|-------------|
A|---------------------------------------|-------------|
F|---------------------------------------|-------------|
C|--0~~-3-8-0~~--5-1-0~~--3-8-0~~--------|-3333-1111---|
G|--0~~-3-8-0~~--5-1-0~~--3-8-0~~--------|-3333-1111---|
C|--0~~-3-8-0~~--5-1-0~~--3-8-0~~--------|-3333-1111---|
PM                                         .... ....

3:52 - 4:07
D|---------------------------------------------------------------------------|
A|---------------------------------------------------------------------------|
F|---------------------------------------------------------------------------|
C|-0-0-0-0--3-3-3-3-1-1-1-1--0-0-0-0--8-8-8-8-5-5-5-5------------------------|
G|-0-0-0-0--3-3-3-3-1-1-1-1--0-0-0-0--8-8-8-8-5-5-5-5------------------------|
C|-0-0-0-0--3-3-3-3-1-1-1-1--0-0-0-0--8-8-8-8-5-5-5-5------------------------|

4:07 - 4:15
D|---------------------------------------------------------------------------|
A|---------------------------------------------------------------------------|
F|---------------------------------------------------------------------------|
C|---------------------------------------------------------------------------|
G|---------------------------------------------------------------------------|
C|-00000000-33333333-1111111-00000000-88888888-55555555----------------------|
Tremolo Pick the above 

4:15 - 4:30
D|---------------------------------------------------------------------------|
A|---------------------------------------------------------------------------|
F|---------------------------------------------------------------------------|
C|-0-0-0-0-0-0--3-3-3-3-3-3-1-1-1-1-1-1--0-0-0-0-0-0--3-3-3-3-3-3-1-1-1-1-1-1|
G|-0-0-0-0-0-0--3-3-3-3-3-3-1-1-1-1-1-1--0-0-0-0-0-0--3-3-3-3-3-3-1-1-1-1-1-1|
C|-0-0-0-0-0-0--3-3-3-3-3-3-1-1-1-1-1-1--0-0-0-0-0-0--3-3-3-3-3-3-1-1-1-1-1-1|

Outro 4:30 - 4:50
D|-------------------------------------|------------------|
A|-------------------------------------|------------------|
F|-------------------------------------|------------------|
C|-0~~~--3~~~--1~~~--0~~~--8~~~--5~~~--|------0~~~~~~~~---|
G|-0~~~--3~~~--1~~~--0~~~--8~~~--5~~~--|------0~~~~~~~~---|
C|-0~~~--3~~~--1~~~--0~~~--8~~~--5~~~--|------0~~~~~~~~---|

To find the EXACT time and rhythm
listen to the song, please. 
This is as close as
I can get. Enjoy. 

| /  slide up
| \  slide down
| h  hammer-on
| p  pull-off
| ~  vibrato
| +  harmonic
| x  Mute note
==============================================================================
Suggest correction
Give kudos to tab author, rate the tab!
1 2 3 4 5
comments
print report bad tab
guest
You may want to rate the tab now too:
select rating
Please do not post tabs as comments. Select "correction" instead!