Oops, an error
Loading. Please wait.

Vile Tab

153 views 1 this week
no commentswrite comment
1 2 3 4 5
1 last vote to show rating
add to favorites
launch autoscroll
font size
0
reset
how to read this tab
guitar tuner
Autoscroll
slow
fast
+/-
esc
set tempo
stop
Help us to improve Ultimate-Guitar.com Take our survey!
×
Author
http://www.sinaibeach.net/

Band: Sinai Beach
Album: When Breath Escapes
Song: Vile

Copyright (c) Facedown Records   2003
Version 1.0 - 11/12/03

Transcribed By: Greg Willett
Email:          [email]xGREGWILLx@hotmail.com[/email]


.  - palm mute           /  - slide up to
\  - slide down to       ~  - vibrato
h  - hammer on           b  - Bend
p  - pull off            Suffixes for bend
t  - tap                 f  - full bend    h - half bend
ph - pinched harmonic    q  - quarter bend t - tap bend
*  - see comment         ^  - Hold bend    r release bend
x  - Stuccatto           ~  - vibrato bend
,  - slight palm mute    () - ghost note, sustained note
"  - tremolo note        <> - Trill

Tunning C G C F A D

intro
------------------------------------------------------------------
------------------------------------------------------------------
------------------------------------------------------------------
------------------------------------------------------------------
---------5-5-8-8-5-5-7-7--4--7--1---------------------------------
------------------------------------------------------------------

verse 1
------------------------------------------------------------------
------------------------------------------------------------------
------------------------------------------------------------------
-----------------------------------7-7--5-5--2-2------------------
------5-5-8-8-5-5-7-7-4-4-------------------------5-5-8-8-5-5-7-7-
------------------------------------------------------------------


------------------------------------------------------------------
------------------------------------------------------------------
------------------------------------------------------------------
------------------------------------------------------------------
-4--7--1-----------------x2---------------------------------------
------------------------------------------------------------------

break
------------------------------------------------------------------
------------------------------------------------------------------
------------------------------------------------------------------
------------------------------------------------------------------
--0-0-0-0--------0-0-0-0----------0-0-0-0---------0-0-0-0---------
--0-0-0-0--------0-0-0-0----------0-0-0-0---------0-0-0-0---------

after break
------------------------------------------------------------------
------------------------------------------------------------------
------------------------------------------------------------------
------------------------------------------------------------------
---------5h8--------5h8-------4h7------4h7-------7h10--------7h10-
---0-0---------0-0--------0-0-------0-0-------0-0----------0-0----


------------------------------------------------------------------
------------------------------------------------------------------
------------------------------------------------------------------
------------------------------------------------------------------
-------5h8--------4h7---------------------------------------------
--0-0-------0-0--------0-0----------------------------------------


next riff (basically same thing)
-----------------------------------------------------------------
-----------------------------------------------------------------
-----------------------------------------------------------------
-----------------------------------------------------------------
-0h5h8--0h5h8--0h5h8--0h5h8--0h4h7--0h4h7--0h4h7--0h4h7----------
-----------------------------------------------------------------


----------------------------------------------------------------
----------------------------------------------------------------
----------------------------------------------------------------
----------------------------------------------------------------
0h7h10--0h7h10--0h7h10--0h7h10--0h5h8--0h5h8--0h4h7-------------
----------------------------------------------------------------


------------------------------------------------------------------
------------------------------------------------------------------
------------------------------------------------------------------
------------------------------------------------------------------
0h4h7-------------------------------------------------------------
------------------------------------------------------------------

mosh
--------------------------------------------------------------------
--------------------------------------------------------------------
--------------------------------------------------------------------
--------------------------------------------------------------------
--0----0-0----6--0--3-----------0-0-0-0------0-0-0-0--------6-0-0-3-
--0----0-0----6--0--3-----------0-0-0-0------0-0-0-0--------6-0-0-3-

------------------------------------------------------------------
------------------------------------------------------------------
------------------------------------------------------------------
------------------------------------------------------------------
--0-0-0-0-----0-0-0-0-0-0-0-0---6-0-0-3---------------------------
--0-0-0-0-----0-0-0-0-0-0-0-0---6-0-0-3---------------------------


little interlude thing

---------------------------------------------------------------------
---------------------------------------------------------------------
---------------------------------------------------------------------
---------------------------------7-7-7-7--5-5-5-5--2-2-2-2-----------
---------5-5-5-5--4-4-4-4--------------------------------------------
----0--------------------------------------------------------0-0-0-0-


------------------------------------------------------------------
------------------------------------------------------------------
------------------------------------------------------------------
------------------------------------------------------------------
-5-5---4---7---1--------------------------------------------------
------------------------------------------------------------------
after that not really sure about this part

------------------------------------------------------------------
------------------------------------------------------------------
------------------------------------------------------------------
------------------------------------------------------------------
------------------------------------------------------------------
---8-5-0-7-5-0-5-3------8-5-0-7-5-0-5-3---------------------------

at the end just repeat the intro and verse 1 parts! 


any changes comments let me know:)
Suggest correction
Give kudos to tab author, rate the tab!
1 2 3 4 5
comments
print report bad tab
guest
You may want to rate the tab now too:
select rating
Wanna post a correction for this tab? Suggest correction