Oops, an error
Loading. Please wait.

Bitmap Tab

version 1
version 1

Whole song

Interactive

193 views 1 this week
no commentswrite comment
1 2 3 4 5
please rate
add to favorites
launch autoscroll
font size
0
reset
how to read this tab
guitar tuner
Tab Pro tools
  • play this tab
  • loop segment
  • change instrument
  • show fretboard
  • metronome
Autoscroll
slow
fast
+/-
esc
set tempo
stop
Contributor
Tuning
D A D G B E
Sinch
"Bitmap"
From the album Sinch
Tabbed by Joe Costello (jcostello86@gmail.com)

This song starts off with 2 minutes of keyboards, random effects, and odd acoustic 
parts.
As a result, the beginning of this tab might not be accurate, but the guitar parts after that
should be fine. If anybody out there knows a better way to do the keyboard part, let me know.
Also, there's no real verse/chorus structure to this song, so it's pretty different.
I've tried to get the timing with the words in this tab.

Tuning: Drop-D (low to high: D A D G B E)

Symbols used:
/ = slide up
\ = slide down
. = palm mute

 Intro: Riff 1 (actually keyboard, arranged for guitar here)
       Use a chorus effect for the best sound.
e|--------------------------------------------|
B|--------------------------------------------|
G|---9--9--9--7--7--7------9--9--9--7--7--5---|
D|---7--7--7--5--5--5------7--7--7--5--5--3---|
A|--------------------------------------------|
D|--------------------------------------------|

                                        play 4x
e|---------------------------------------------|
B|---------------------------------------------|
G|---9--9--9--7--7--7----9--9--9--12--12--12--*|
D|---7--7--7--5--5--5----7--7--7--10--10--10--*|
A|---------------------------------------------|
D|---------------------------------------------|

  Riff 2: (at 0:43)
e|-----------------------|---------------------|
B|-----------------------|---------------------|
G|---9--9--9--9--10-10---|--9---9--9--7--7--5--|
D|---9--9--9--9--10-10---|--9---9--9--7--7--5--|
A|-----------------------|---------------------|
D|-----------------------|---------------------|

e|-----------------------|-----------------------|
B|---8--8--8--10-10-10---|---8--8--8--10-10-10---|
G|---7--7--7---9--9--9---|---7--7--7---9--9--9---|
D|-----------------------|-----------------------|
A|-----------------------|-----------------------|
D|-----------------------|-----------------------|

e|-----------------------|---------------------|
B|-----------------------|---------------------|
G|---9--9--9--9--10-10---|--9---9--9--7--7--5--|
D|---9--9--9--9--10-10---|--9---9--9--7--7--5--|
A|-----------------------|---------------------|
D|-----------------------|---------------------|

e|-----------------------|----------------------------|
B|---8--8--8--10-10-10---|--13-13-13-13-13-13-13-13---|
G|---7--7--7---9--9--9---|--12-12-12-12-12-12-12-12---|
D|-----------------------|----------------------------|
A|-----------------------|----------------------------|
D|-----------------------|----------------------------|
                                         -end of Riff 2

Band enters, play Riff 1 2x
Play Riff 2 once
Play Riff 1 2x
Play Riff 2 once
*I think there's an acoustic guitar solo in here, can't pick out the notes though.

Finally...

 Verse: (w/heavy distortion at 2:30)
e|------------------------|------------------------|------------------------------------------|
B|------------------------|------------------------|------------------------------------------|
G|------------------------|------------------------|------------------------------------------|
D|---5-7--5-7--7-7-7--5---|---5-7--5-7--7-7-7--5---|--3--3--3--3--3--3--3--3--3--3--3--3--3---|
A|---5-7--5-7--7-7-7--5---|---5-7--5-7--7-7-7--5---|--3--3--3--3--3--3--3--3--3--3--3--3--3---|
D|---5-7--5-7--7-7-7--5---|---5-7--5-7--7-7-7--5---|--3--3--3--3--3--3--3--3--3--3--3--3--3---|
     "Wrong....					      way...

e|------------------------|------------------------|----------------------------------------------|
B|------------------------|------------------------|----------------------------------------------|
G|------------------------|------------------------|----------------------5-5/7-7-7-7/9--9--9--9--|
D|---5-7--5-7--7-7-7--5---|---5-7--5-7--7-7-7--5---|--3--3--3--3--3--3--3-------------------------|
A|---5-7--5-7--7-7-7--5---|---5-7--5-7--7-7-7--5---|--3--3--3--3--3--3--3-3-3/5-5-5-5/7--7--7--7--|
D|---5-7--5-7--7-7-7--5---|---5-7--5-7--7-7-7--5---|--3--3--3--3--3--3--3-------------------------|
   "with all my heart        with all my soul,        we'll stay...

e|------------------------|------------------------|----------------------------------------------|
B|------------------------|------------------------|----------------------------------------------|
G|------------------------|------------------------|----------------------5-5/7-7-7-7/9--9--9--9--|
D|---5-7--5-7--7-7-7--5---|---5-7--5-7--7-7-7--5---|--3--3--3--3--3--3--3-------------------------|
A|---5-7--5-7--7-7-7--5---|---5-7--5-7--7-7-7--5---|--3--3--3--3--3--3--3-3-3/5-5-5-5/7--7--7--7--|
D|---5-7--5-7--7-7-7--5---|---5-7--5-7--7-7-7--5---|--3--3--3--3--3--3--3-------------------------|
   "complete...						when...

e|---------------------------------------------------------------------------|
B|---------------------------------------------------------------------------|
G|-9-9-9-9-9-9-9-9-12-12-12-12-12-12-12-14-14-14-14-14-14-14-14-16-16-16-16--|
D|---------------------------------------------------------------------------|
A|-7-7-7-7-7-7-7-7-10-10-10-10-10-10-10-12-12-12-12-12-12-12-12-14-14-14-14--|
D|---------------------------------------------------------------------------|
   "if all this       goes    as         planned  I know         you'll

e|-------------------------------------------------|
B|-------------------------------------------------|
G|--17-17-17-17-17-17-17-19-19-19-19-19-19-19-19---|
D|-------------------------------------------------|
A|--15-15-15-15-15-15-17-17-17-17-17-17-17-17-17---|
D|-------------------------------------------------|
     stay...                               with me"

  Interlude: (at 3:13)
                                (4x)
e|--------------------------------|
B|------------------------5-5-5---|
G|-------------5-4---4-5---------*|
D|--7--7--7--------5-------------*|
A|--7--7--7-----------------------|
D|--7--7--7-----------------------|
    .  .  .    . . . . .  . . .

		     (3x)   last time:
e|--------------------------------|----------------------------------|
B|------------------------5-5-5---|--5b(7)-5b(7)-5b(7)-5b(7)-5b(7)---|
G|-------------5-4---4-5---------*|----------------------------------|
D|--3--3--3--------5-------------*|----------------------------------|
A|--3--3--3-----------------------|----------------------------------|
D|--3--3--3-----------------------|----------------------------------|
    .  .  .    . . . . .

  Verse 2:
e|-----------------------------------|--------------------------------------|
B|-----------------------------------|--------------------------------------|
G|-----------------------------------|--------------------------------------|
D|--0--0--0--0--0--0--0--0--0--0--0--|--3--3--3--3--3--3--3--3--3--3--3--3--|
A|--0--0--0--0--0--0--0--0--0--0--0--|--3--3--3--3--3--3--3--3--3--3--3--3--|
D|--0--0--0--0--0--0--0--0--0--0--0--|--3--3--3--3--3--3--3--3--3--3--3--3--|
    "No...			     please stay...

e|--------------------------------------|--------------------------------------------|
B|--------------------------------------|--------------------------------------------|
G|--------------------------------------|-----------------------5--5/7--7--7--7------|
D|--0--0--0--0--0--0--0--0--0--0--0--0--|--3--3--3--3--3--3--3-----------------------|
A|--0--0--0--0--0--0--0--0--0--0--0--0--|--3--3--3--3--3--3--3--3--3/5--5--5--5------|
D|--0--0--0--0--0--0--0--0--0--0--0--0--|--3--3--3--3--3--3--3-----------------------|
   "If all this goes as planned I know      we'll stay                    complete..."

Here, go back to playing the keyboard parts as shown till song fades out.

Play Riff 1 2x
Play Riff 2 once (fade out)
*Once again, the acoustic guitar shows up as the song fades out. He's playing some notes 
the high e string. Not sure of the notes, so improvise.

That's about it.

-Joe
comments
We did not receive enough feedback on this tab! Please rate:
print report bad tab
1 2 3 4 5
I want to post or [tab]
guest
You may want to rate the tab now too:
select rating
Please do not post tabs as comments. Select "correction" instead!