Oops, an error
Loading. Please wait.

Punk Suicida Tab

112 views 1 this week
no commentswrite comment
1 2 3 4 5
2 more votes to show rating
add to favorites
launch autoscroll
font size
0
reset
how to read this tab
guitar tuner
×
Best way to learn
"Punk Suicida"
Autoscroll
slow
fast
+/-
esc
set tempo
stop
para tocarla la 2° guitarra que es la acustica hay que tocarla
rasgueada para arriba y tocando las cuerdas con la pajuela casi pegada
al puente

INTRO

      F    A#   C    A
1-----------------------------
2-----------------------------
3-----------3-3----5-5----7-7-   x2
4----3-3----3-3----5-5----7-7-
5----3-3--1-1-1--3-3-3--5-5-5-
6--1-1-1----------------------

      D    C    D    C    D   C     A#
1-------------------------------------------------
2-------------------------------------------------
3----7-7----5-5----7-7----5-5----7-7----5-5----3-3
4----7-7----5-5----7-7----5-5----7-7----5-5----3-3
5--5-5-5--3-3-3--5-5-5--3-3-3--5-5-5--3-3-3--1-1-1
6-------------------------------------------------

  D        C         D        C          D          C
  Hoy es el gran dia agarra tu chamarra y vete a la tokada

 A#             C             D                        C         A#
 punk suicida, punk suicida, punk suicida punk suicida suicidaa  ooh

      D-D-D-D-D-D-D-D-D    C    D    C    D   C     A#

  D        C         D        C          D          C
  Hoy es el gran dia agarra tu chamarra   parate los pelos

 A#             C             D                        C         A#
 punk suicida, punk suicida, punk suicida punk suicida suicidaa  ooh


  asi igual toda la cancion despues del solo que es con la 2° cuerda
con la misma estructura de la cancion, se vuelve a repetir el comienzo
Suggest correction
Give kudos to tab author, rate the tab!
1 2 3 4 5
comments
print report bad tab
guest
You may want to rate the tab now too:
select rating
Wanna post a correction for this tab? Suggest correction