Oops, an error
Loading. Please wait.

If You Let Me chords

5,632 views 141 this week
no commentswrite comment
1 2 3 4 5
x 4
add to favorites
×
Save as Personal and add changes to this tab that will be seen only by you. Learn more ›
×
You can save this tab as Personal to edit and correct it or add notes. All changes will be seen only by you. Learn more »
launch autoscroll
font size
0
reset
transpose
0
reset
simplify chords
display chords
guitar tuner
edit
Autoscroll
slow
fast
+/-
esc
set tempo
stop
Strumming
There is no strumming pattern for this song yet. and get +5 IQ
Tuning : Eb Ab C# F# Bb eb (Half-Step Down)
Capo   : Nope

(The original chords are)   Cm7   Ab7   Fm7   G7
but since we are in Half-Step Down Tuning,
the actual chord shapes we will be using are shown below:

       Cm7    Ab    Fm    G7
eb|----------(0)----2-----------|
Bb|-----9-----5-----2-----4-----|
F#|-----9-----6-----2-----5-----|
C#|-----9-----7-----4-----4-----|
Ab|-----x-----7-----4-----x-----|
Eb|-----9-----5-----2-----4-----|

(Chorus Bass Line for Eb Tuning)
         "I'll  love  you   like  I've never, ever loved somebody"
eb|-------|-----|-----|-----|-----|----------------|
Bb|-------|-----|-----|-----|-----|-----9----------|
F#|-------|-----|-----|-----|-----|-----9----------|
C#|-------|-----|-----|-----|-----|-----9----------|
Ab|-------|-----|-----|-----|-----|-----x----------|
Eb|-----5/7-----5-----4-----2-----0-----9----------|

         "Don't tell  me    that  it's  not enough"
eb|-------|-----|-----|-----|-----|-----2----------|
Bb|-------|-----|-----|-----|-----|-----2----------|
F#|-------|-----|-----|-----|-----|-----2----------|
C#|-------|-----|-----|-----|-----|-----4----------|
Ab|-------|-----|-----|-----|-----|-----4----------|
Eb|-----5/7-----5-----4-----2-----0-----2----------|


(The notes in the bass line sound fine by their own
but if you want to use octaves or power chords,
they sound purty nice too.)

[Intro]
Cm7   Ab   Fm    G7 (Strum once)

[Verse 1]
Cm7
Hurts me the most when I wake
  Ab
I fumble and twist, 'til the truth starts to click
Fm
There's so much space in this bed
       G7
These sheets go for miles: dreams of your smile

[Pre-Chorus] 
(Arpeggiate Chords)
Cm7
I don't wanna be just a memory
            Ab
And I don't wanna feel your wings break free
        Fm
Because without you I'm lost in the breeze
           G7
I gotta be strong now, I gotta show you how

[Chorus]
                        Cm7
I'll love you like I've never, ever loved somebody
                         Ab
I'll give you things you didn't even know you wanted
                        Fm
Don't tell me that it's not enough
My time is up, you're over us
                G7
Cause I think I might do anything for you
            Cm7                 Ab7
If you just let me, if you just let me
            Fm      G7
If you just let me, just let me

[Verse 2]
Cm7
Taste of your lips is still fresh
        Ab
And the smell of your scent, how could I forget?
     Fm
Your words how they cut me to shreds
       G7
But to tell you the truth every piece is for you

[Pre-Chorus] 
(Arpeggiate Chords)
Cm7
I don't wanna be just a memory
            Ab
And I don't wanna feel your wings break free
        Fm7
Because without you I'm lost in the breeze
           G7
I gotta be strong now, I gotta show you how

[Chorus]
                        Cm7
I'll love you like I've never, ever loved somebody
                         Ab
I'll give you things you didn't even know you wanted
                        Fm
Don't tell me that it's not enough
My time is up, you're over us
                G7
Cause I think I might do anything for you
            Cm7                 Ab
If you just let me, if you just let me
            Fm      G7
If you just let me, just let me

[Bridge: Instrumental] 
Cm7   Ab   Fm    G7 (Strum once)

[Final Chorus]
                        Cm7
I'll love you like I've never, ever loved somebody
                         Ab
I'll give you things you didn't even know you wanted
                        Fm
Don't tell me that it's not enough
My time is up, you're over us
                G7
Cause I think I might do anything for you
            Cm7                 Ab
If you just let me, if you just let me
            Fm      G7
If you just let me, just let me

(Chorus Bass Line for Standard Tuning)
        "I'll  love  you   like  I've never, ever loved somebody"
e|-------|-----|-----|-----|-----|----------------|
B|-------|-----|-----|-----|-----|-----8----------|
G|-------|-----|-----|-----|-----|-----8----------|
D|-------|-----|-----|-----|-----|-----8----------|
A|-------|-----|-----|-----|-----6-----x----------|
E|-----4/6-----4-----3-----1-----------8----------|

        "Don't tell  me    that  it's  not enough"
e|-------|-----|-----|-----|-----|-----8----------|
B|-------|-----|-----|-----|-----|-----9----------|
G|-------|-----|-----|-----|-----|-----8----------|
D|-------|-----|-----|-----|-----|-----10---------|
A|-------|-----|-----|-----|-----6-----8----------|
E|-----4/6-----4-----3-----1----------------------|

            
            
Suggest correction
Creating personal tab
Creating personal tab
You can edit any tab online and save it as your Personal.

You can edit, replace or remove any tab part or add personal notes – all changes will be seen only by you.

Personal tabs can be accessed anytime from any device, even offline.
Learn more »
comments
print report bad tab
guest
You may want to rate the tab now too:
select rating
Wanna post a correction for this tab? Suggest correction