Oops, an error
Loading. Please wait.

Bicharraco Bass

28 views 3 this week
no commentswrite comment
1 2 3 4 5
3 more votes to show rating
add to favorites
launch autoscroll
font size
0
reset
guitar tuner
×
Best way to learn
"Bicharraco"
Autoscroll
slow
fast
+/-
esc
set tempo
stop
Intro
G|----------------------------------------------------|
D|----------------------------------------------------|
A|----------------------------------------------------|
E|----------------------------------------------------|
B|-4-4-4-4-4~----4-4-4-4-4----4-4-4-4-4~----4-4-4-4-4-|

G|----------------------------------------------------|
D|----------------------------------------------------|
A|----------------------------------------------------|
E|----------------------------------------------------|
B|-4-4-4-4-4~----4-4-4-4-4----4-4-4-4-4~----4-4-4-4-4-|

Verso
Sanganos en el congreso
G|-----------------------------------------|
D|-----------------------------------------|
A|-----------------------------------------|
E|-----------------------------------------|
B|-12\4--4-4---4-4-4-4-4---4-4---4-4-4-4-4-|

Babosas.. en la Tv
G|---------------------------------------8-|
D|---------------------------------------8-|
A|-----------------------------------------|
E|-----------------------------------------|
B|--4-4---4-4-4-4-4---4-4---4-4-4-4-4-4----|

Buitres, en las multitiendas
G|----------------------------------------|
D|----------------------------------------|
A|----------------------------------------|
E|----------------------------------------|
B|--4-4---4-4-4-4-4---4-4---4-4-4-4-4-4---|

Polillas en la educacion...
G|----------------------------------------|
D|----------------------------------------|
A|----------------------------------------|
E|----------------------------------------|
B|--4-4---4-4-4-4-4---4-4---4-4-4-4-4-4---|

Coro  Hay q cortar todo de raiz...
G|-3h5--------5-|
D|-----0h3------|esto se toka 8 veses..
A|--------------|y el la ultima el 5 no se toka
E|--------------|
B|--------------|

Verso 2
Cucarachas.. en los noticieros
G|---------------------------------------|
D|---------------------------------------|
A|---------------------------------------|
E|---------------------------------------|
B|-4-4-4-4-4-4-4-4-4-4-4-4-4-4-4-4-4-4-4-|

Virus.. en la internet
G|---------------------------------(6h8)-|Las notas entre () las toca el segundo
D|---------------------------------------|Bajo.. el hermano del alexis
A|---------------------------------------|
E|---------------------------------------|
B|-4-4-4-4-4-4-4-4-4-4-4-4-4-4-4-4-4-4-4-|

Telarañas en los trbunales
G|---------------------------------------|
D|---------------------------------------|
A|---------------------------------------|
E|---------------------------------------|
B|-4-4-4-4-4-4-4-4-4-4-4-4-4-4-4-4-4-4-4-|

Hongos.. en los hospitales
G|(6h8)------(6h8)------(6h8)------(6h8)-|
D|---------------------------------------|
A|---------------------------------------|
E|---------------------------------------|
B|-4-4-4-4-4-4-4-4-4-4-4-4-4-4-4-4-4-4-4-|

Coro  Hay q cortar todo de raiz...
G|-3h5--------5-|
D|-----0h3------|= k el primer koro
A|--------------|
E|--------------|
B|--------------|

Puente  Para recobrar...
G|---------------------------|
D|---------------------------|
A|---------------------------|
E|-4-4--4--4--4--4-----------|
B|-----------------4-4-4-4-4-|

G|---------------------------|
D|---------------------------|
A|---------------------------|
E|-4-4--4--4--4--4-----------|
B|-----------------4-4-4-4-4-|

G|---------------------------|
D|---------------------------|
A|---------------------------|
E|-4-4--4--4--4--4-----------|
B|-----------------4-4-4-4-4-|

G|-----------------------------------|
D|-----------------------------------|
A|-----------------------------------|
E|-4-4--4--4--4--4-------------------|
B|-----------------4-4-4-4-4--4/10\4-|

Solo de guitarra
G|-------------------------|
D|-------------------------|
A|-------------------------|
E|-------------------------|
B|------4--4--4--4-4-4-4-4-|

G|-------------------------|
D|-------------------------|
A|-------------------------|
E|-------------------------|
B|------4--4--4---4/10\4---|

Verso 3
Ratas, en las empresas
G|-----------------------------------------|
D|-----------------------------------------|
A|-----------------------------------------|
E|-----------------------------------------|
B|-12\4--4-4---4-4-4-4-4---4-4---4-4-4-4-4-|

Pulgas en los video juegos
G|---------------------------------------8-|
D|---------------------------------------8-|
A|-----------------------------------------|
E|-----------------------------------------|
B|--4-4---4-4-4-4-4---4-4---4-4-4-4-4-4----|

Piojos.. en la farandula
G|----------------------------------------|
D|----------------------------------------|
A|----------------------------------------|
E|----------------------------------------|
B|--4-4---4-4-4-4-4---4-4---4-4-4-4-4-4---|

Sanguijuelas, en el futbol
G|----------------------------------------|
D|----------------------------------------|
A|----------------------------------------|
E|----------------------------------------|
B|--4-4---4-4-4-4-4---4-4---4-4-4-4-4-4---|

Coro  Hay q arrancar todo de raiz...
G|-3h5--------5-|= k las veses anteriores
D|-----0h3------|
A|--------------|
E|--------------|
B|--------------|

Puente 2   si es tan facil...
G|---------------------------|
D|---------------------------|
A|---------------------------|
E|-4-4--4--4--4--4-----------|
B|-----------------4-4-4-4-4-|

G|---------------------------|
D|---------------------------|
A|---------------------------|
E|-4-4--4--4--4--4-----------|
B|-----------------4-4-4-4-4-|

G|---------------------------|
D|---------------------------|
A|---------------------------|
E|-4-4--4--4--4--4-----------|
B|-----------------4-4-4-4-4-|

G|-----------------------------------|
D|-----------------------------------|
A|-----------------------------------|
E|-4-4--4--4--4--4-------------------|
B|-----------------4-4-4-4-4--4/10\4-|

Solo de guitarra
G|-------------------------|
D|-------------------------|
A|-------------------------|
E|-------------------------|
B|------4--4--4--4-4-4-4-4-|

G|-------------------------|
D|-------------------------|
A|-------------------------|
E|-------------------------|
B|------4--4--4---4/10\4---|

Verso 4
Garrapatas, en mi cabeza...
G|---------------------------------------|
D|---------------------------------------|
A|---------------------------------------|
E|---------------------------------------|
B|-4-4-4-4-4-4-4-4-4-4-4-4-4-4-4-4-4-4-4-|

Gusanos.. en mis pies
G|---------------------------------(6h8)-|
D|---------------------------------------|
A|---------------------------------------|
E|---------------------------------------|
B|-4-4-4-4-4-4-4-4-4-4-4-4-4-4-4-4-4-4-4-|

Berrugas en mis manos...
G|---------------------------------------|
D|---------------------------------------|
A|---------------------------------------|
E|---------------------------------------|
B|-4-4-4-4-4-4-4-4-4-4-4-4-4-4-4-4-4-4-4-|

Bicharracos   en mi cuerpo
G|(6h8)------(6h8)------(6h8)------(6h8)-|
D|---------------------------------------|
A|---------------------------------------|
E|---------------------------------------|
B|-4-4-4-4-4-4-4-4-4-4-4-4-4-4-4-4-4-4-4-|

Ultimo coro
G|-3h5--------5-|aki se toka asta la penultima
D|-----0h3------|
A|--------------|
E|--------------|
B|--------------|

Y la ultima se toca asi
G|-3h5--------5-5-|
D|-----0h3----5-5-|
A|----------------|
E|----------------|
B|----------------|

Bueno hay esta la cancion.. gran tema de sinergia....  saluos a too los k konosko..
Adios..;)
Suggest correction
Give kudos to tab author, rate the tab!
1 2 3 4 5
comments
print report bad tab
guest
You may want to rate the tab now too:
select rating
Wanna post a correction for this tab? Suggest correction