Oops, an error
Loading. Please wait.

Chilerobot Bass

49 views 1 this week
no commentswrite comment
1 2 3 4 5
3 more votes to show rating
add to favorites
launch autoscroll
font size
0
reset
guitar tuner
×
Best way to learn
"Chilerobot"
Autoscroll
slow
fast
+/-
esc
set tempo
stop
Hice un tab para 5 cuerdas pero no es algo prescindible solo q se escucha mejor 
con el SI grave, pero para eso existen las octavas : Inqbus

Intro 

G-11-11--11----11----11-|
D-12-13-----13----13----|
A-----------------------|
E-----------------------|

Coro
                  1°           2°
G-------------|-8-11--|----------------|
D---1---1---1-|-------|-9-7------------|
A-------------|-------|-----9-8-7------|
E-------------|-------|-----------9-7\-|
B-0---0---0---|-------|----------------|

		 1°    2°
G-------------|-8-11-|---|
D---1---1---1-|------|---|
A-------------|------|---|
E-------------|------|-6-|
B-0---0---0---|------|---|

		  1°		2°
G-------------|-8-11--|-17-16-15----------|
D---1---1---1-|-------|-------------------|
A-------------|-------|----------15-16-17-|
E-------------|-------|-------------------|
B-0---0---0---|-------|-------------------|

G-------------|-8-11--|
D---1---1---1-|-------|
A-------------|-------|
E-------------|-------|
B-0---0---0---|-------|


Verso

G---------------------13-12-12-----     X3
D----------11------------------12b-
A-11-12-13---13-12-11--------------
E----------------------------------

G-----------------------------------
D----------11----10----9----8-------
A-11-12-13----12----11---10---3-4-5-
E-----------------------------------

G------------------------
D---------------6-5-5----      X3
A-------4-------------5b-
E-4-5-6---6-5-4----------

G----------------
D----------------      
A-------4--------
E-4-5-6---6-5-4/-


Coro 

2° Verso

G---------------------13-12-12-----     X3
D----------11------------------12b-
A-11-12-13---13-12-11--------------
E----------------------------------

G-----------------------------------
D----------11----10----9----8-------
A-11-12-13----12----11---10---3-4-5-
E-----------------------------------

G-----|
D-----|
A-----|
E-----|
B-12/-|

Coro

Break 

G-------
D-------
A-------
E-------
B-4-4-4-

La parte de !contacto¡

G---------|                        |-8-|
D---------|                        |---|
A-------6-|
Suggest correction
Give kudos to tab author, rate the tab!
1 2 3 4 5
comments
print report bad tab
guest
You may want to rate the tab now too:
select rating
Wanna post a correction for this tab? Suggest correction