Oops, an error
Loading. Please wait.

Concurso Bass Tab

25 views 1 this week
no commentswrite comment
1 2 3 4 5
3 more votes to show rating
add to favorites
launch autoscroll
font size
0
reset
guitar tuner
Autoscroll
slow
fast
+/-
esc
set tempo
stop
Help us to improve Ultimate-Guitar.com Take our survey!
×
Quieres tener vacaciones...                              ...de cancún
|-------------------------------------------------------------------|
|---------------------------4---------------------------------4-----|
|-------------------------------------------------------------------|
|-2-0-2-0-2-0-2-0-2-0-2-0-2---2-0---2-0-2-0-2-0-2-0-2-0-2-0-2---2-0-|
|-------------------------------------------------------------------|
tatarataratarataratarataraPItara...

                 (armónico)
|--------------------x--------------------x-|
|--------------------x--------------------x-|
|2-0-2-0-2-0-2------------2-0-2-0-2-0-2-----|
|-------------------------------------------|
|--------------0------------------------0---|
tarataratarataPOM (pin)...


Junta Tapitas... Junta etiquetas...
|----6---3---------7---4h5p4h5p4h5p4-|
|--5-------4-----6-------------------|
|4-------------5---------------------|
|------------------------------------|
|------------------------------------|
tatata tata tarará pl pl pl pl pl 


Concurso! A ganar a ganar...
|--------------------------------------------0-|
|--------2-------------2-------------2---------|
|----------------------------------------------|
|2-2---0---0-0-2-2---0---0-0-2-2---0---0-0-3---|
|----------------------------------------------|
papam tupatutupapam tupatutupapam tupatututaram...


Mientras más sobres envies, mas posibilidades...
|----------------------------------------------------2-|
|--3-4---------4---------------4-----------------3h4h--|
|0-----3-0-------3-0-------------3-0--------h0---------|
|----------2---------2---x-x---------2---1h2-----------|
|------------------------------------------------------|


(Final)
|-----------h2----h-h2--------h9---11--------|
|--------3h4-----3-4-----10h11---------------|
|---h0---------------------------------------|
|1h2------------------------------------2~~~-|
|--------------------------------------------|
Suggest correction
Give kudos to tab author, rate the tab!
1 2 3 4 5
comments
print report bad tab
guest
You may want to rate the tab now too:
select rating
Wanna post a correction for this tab? Suggest correction