Oops, an error
Loading. Please wait.

El Modesto Tab

62 views 1 this week
no commentswrite comment
1 2 3 4 5
3 more votes to show rating
add to favorites
launch autoscroll
font size
0
reset
how to read this tab
guitar tuner
Autoscroll
slow
fast
+/-
esc
set tempo
stop
Help us to improve Ultimate-Guitar.com Take our survey!
×
             D5                 A5
Soy tan hermoso, soy tan precioso
            E5                  A5
Soy primoroso, bello lindo, soy grandioso
            D5           A5
Soy exquisito, soy tan bonito
            E5                     A5
Y escuchen esto soy sencillo y soy modesto

             A5                  D5
Cuando era chico yo tuve una sorpresa
            G5                   C5
Al descubrir que en mi todo era belleza
            E5                   A5
No me resigno a que toda mi hermosura
            F5                   E5
Dentro de un tiempo se vaya a la basura

Porque Dios mio me hiciste tan perfecto
Porque Señor no me diste algun defecto
Yo sufro tanto por ser tan diferente
Quiero ser feo como toda la gente

Soy tan hermoso, soy tan precioso
Soy primoroso, bello lindo, soy grandioso
Soy exquisito, soy tan bonito
Y escuchen esto soy sencillo y soy modesto

-12-13----12--------12--------------------------------------13-12-
-------13----15--15----12-15-13--13-15----13-12-13-12-13-15-------
---------------------------------------12-------------------------
------------------------------------------------------------------
------------------------------------------------------------------
------------------------------------------------------------------

-12-13----12--------12--------------------------------------------
-------13----15--15----12-15-13--13-15----13-12-13-12-------------
---------------------------------------14--------------14-13-14---
------------------------------------------------------------------
------------------------------------------------------------------
------------------------------------------------------------------

No me decido a casarme todavía
Sere egoísta arruinar asi las vidas
De esas muchachas que no duermen tranquilas
Porque me han visto parado en una esquina

Porque Dios mio me hiciste tan perfecto
Porque Señor no me diste algun defecto
Yo sufro tanto por ser tan diferente
Quiero ser feo como toda la gente

Soy tan hermoso, soy tan precioso
Soy primoroso, bello lindo, soy grandioso
Soy exquisito, soy tan bonito
Y escuchen esto soy sencillo y soy
Soy tan hermoso, soy tan precioso
Soy primoroso, bello lindo, soy grandioso
Soy exquisito, soy tan bonito
Y escuchen esto soy sencillo y soy modesto
Suggest correction
Give kudos to tab author, rate the tab!
1 2 3 4 5
comments
print report bad tab
guest
You may want to rate the tab now too:
select rating
Wanna post a correction for this tab? Suggest correction