Oops, an error
Loading. Please wait.

La Suerte Tab

13 views 3 this week
no commentswrite comment
1 2 3 4 5
3 more votes to show rating
add to favorites
launch autoscroll
font size
0
reset
how to read this tab
guitar tuner
Autoscroll
slow
fast
+/-
esc
set tempo
stop
Help us to improve Ultimate-Guitar.com Take our survey!
×
Intro:
E----------------------------------------------8/10~--8~--
B-9-8-6--------9-8-6----9-8-6----9-8-6--------------------
G-------7~-7-7-------7---------7---------7~-7-------------
D---------------------------------------------------------
A---------------------------------------------------------
E---------------------------------------------------------
(al final hay una variacion con Fa5 y Sol#5)

FA#5 SOL#5 FA#5 SOL#5
Esta vez la suerte
FA#5 SOL#5 FA#5 SOL#5
esta conmigo jaja
FA#5 SOL#5 FA#5 SOL#5
Esta vez la suerte
FA#5 SOL#5 FA#5 SOL#5
esta conmigo

(Las mismas notas)
Esta vez supero
el desafio
Esta vez yo cambio
MI destino, destino

Lam (o puede ser con La5)
No lo voy a dejar ir
No lo voy a dejar ir
No lo voy a dejar ir
No lo voy a dejar ir

E----------------------------------------------8/10~--8~--
B-9-8-6--------9-8-6----9-8-6----9-8-6--------------------
G-------7~-7-7-------7---------7---------7~-7-------------
D---------------------------------------------------------
A---------------------------------------------------------
E---------------------------------------------------------

He esperado mucho
este momento
En que de una vez
se abra el cielo
Esta vez tu y yo
seremos uno
Uno, dos y seremos
millones, millones

LA5
Esta es mi oportunidad
No la voy a dejar ir
Esta es mi oportunidad
Ahora me voy a divertir

Esta es mi oportunidad
No la voy a dejar ir
No la voy a dejar ir
No la voy a dejar ir
No la voy a dejar ir
No la voy a dejar ir

E----------------------------------------------8/10~--8~--
B-9-8-6--------9-8-6----9-8-6----9-8-6--------------------
G-------7~-7-7-------7---------7---------7~-7-------------
D---------------------------------------------------------
A---------------------------------------------------------
E---------------------------------------------------------
No no
La suerte, la suerte esta conmigo
La suerte, la suerte esta conmigo
La suerte, la suerte esta conmigo
La suerte, la suerte esta conmigo
Suggest correction
Give kudos to tab author, rate the tab!
1 2 3 4 5
comments
print report bad tab
guest
You may want to rate the tab now too:
select rating
Wanna post a correction for this tab? Suggest correction