Oops, an error
Loading. Please wait.

Lo Que Llevas Dentro Tab

22 views 3 this week
no commentswrite comment
1 2 3 4 5
3 more votes to show rating
add to favorites
×
Save as Personal and add changes to this tab that will be seen only by you. Learn more ›
×
You can save this tab as Personal to edit and correct it or add notes. All changes will be seen only by you. Learn more »
save as personal
new!
launch autoscroll
font size
0
reset
how to read this tab
guitar tuner
Autoscroll
slow
fast
+/-
esc
set tempo
stop
INTRO:(esto se repite por cada verso)

E-----------------2-1-
B-----------------2-1-
G--------------4--3-2-
D------------5----4-3-
A-3-2-0-----------4-3-
E-------3-0-------2-1-

Nada vas a conseguir
Si no pones todo lo que tienes
Nada puede ocultar
La belleza que llevamos dentro


(Aqui suena el bajo solo)
E-------------
B-------------
G-------------
D-------------
A---------0---
E-0-3-0-3---3-
Levanta tu bandera...

(aqui suena la guitarra)
E-------------
B-------------
G-------------
D-------------
A---------0---
E-0-3-0-3---3-
Toca en una banda...

E-----------------2-1-
B-----------------2-1-
G--------------4--3-2-
D------------5----4-3-
A-3-2-0-----------4-3-
E-------3-0-------2-1-
Nada vas a conseguir...

(aqui suena la guitarra)
E-------------
B-------------
G-------------
D-------------
A---------0---
E-0-3-0-3---3-
raya las paredes...

(al final queda el bajo tocando la melodia anterior y Pedrales se
manda este solo)
E-14-12-------14--12h14-12--------16-14-|
B-------14-12--------------14-12--------|
G---------------------------------------|
D---------------------------------------|
A---------------------------------------|
E---------------------------------------|
(Este solo se repite varias veces)
Suggest correction
Give kudos to tab author, rate the tab!
1 2 3 4 5
comments
print report bad tab
guest
Wanna post a correction for this tab? Suggest correction