Oops, an error
Loading. Please wait.

Marina Bass Tab

101 views 1 this week
no commentswrite comment
1 2 3 4 5
3 more votes to show rating
add to favorites
launch autoscroll
font size
0
reset
guitar tuner
Autoscroll
slow
fast
+/-
esc
set tempo
stop
Help us to improve Ultimate-Guitar.com Take our survey!
×
Aqui va este tema para todos los pajarones enamorados:

INTRO:
G------------------
D------------------
A------------------  X4
E------------------
B--4-4-5-5-6-6-7---

Tomasito Tomasito no me dejes sola Tomasito...
Toma...Toma...Toma...Toma...T...Tomasito
G---------------------------------
D---------------------------------
A---------------------------------
E-5-5-5-5-5-5-5-5-3-3-3-3-3-3-3-3-
B---------------------------------

VERSO:
Me miro al espejo...
G-------------------------------------------
D-------------------------------------------
A-7----7----7----7----7---------------------
E--9-7--9-7--9-7--9-7--9-7--5-5-5-5-5-5-5-5-
B-------------------------------------------

CORO:
Chocolate...
G----------------------------------
D----------------------------------
A----------------------------------
E----------------------------------
B-5-5-5-5-4-4-4-4-5-5-5-5-4-4-4-4--
(Al final del coro)
G-------------
D-------------
A-------------
E-------------
B-6-6-6-7-7-7-

VERSO:
Quise triunfar en la vida...
G-------------------------------------------
D-------------------------------------------
A-7----7----7----7----7---------------------
E--9-7--9-7--9-7--9-7--9-7--5-5-5-5-5-5-5-5-
B-------------------------------------------

CORO:
Chocolate...
G----------------------------------
D----------------------------------
A----------------------------------
E----------------------------------
B-5-5-5-5-4-4-4-4-5-5-5-5-4-4-4-4--
(Al final del coro)
G-------------
D-------------
A-------------
E-------------
B-6-6-6-7-7-7-

Es que me cuesta...
G---------------
D-4-4-5-5-6-6-7-
A---------------
E---------------
B---------------
(Despues de esto)
G------------------
D------------------
A------------------  X4
E------------------
B--4-4-5-5-6-6-7---

Como lo hago...
G-------------------------------------------
D-------------------------------------------
A-------------------------------------------
E-7----7----7----7----7---------------------
B--9-7--9-7--9-7--9-7--9-7--5-5-5-5-3-5-5-5-

FINAL:
G-------------------------------------------
D-------------------------------------------
A-------------------------------------------
E-7-7----7-7----7-7-----7-7----7-7----------
B----9-7----9-7----9-7-----9-7----9-7-------

Noche llena de pena y dolor
cuando se busca en la noche
un parecido al amor
Suggest correction
Give kudos to tab author, rate the tab!
1 2 3 4 5
comments
print report bad tab
guest
You may want to rate the tab now too:
select rating
Wanna post a correction for this tab? Suggest correction