Oops, an error
Loading. Please wait.

Mujer Robusta Bass Tab

218 views 1 this week
no commentswrite comment
1 2 3 4 5
3 more votes to show rating
add to favorites
launch autoscroll
font size
0
reset
guitar tuner
Autoscroll
slow
fast
+/-
esc
set tempo
stop
Help us to improve Ultimate-Guitar.com Take our survey!
×
aki ta pa bajo y corregia.. ya k antes me avia
okivokado.. y la avia mandado pa guitarra
ademas k tenia kaleta de errores..:P aka la arregle


Intro
G|---------7h9^-|
D|--------------|
A|--------------|
E|--------------|
B|---3~---------|

G|--------------------------------------------|pongale arto kolor en esto..
D|----------2--4/5-----------------2--4/5-----|
A|-4--6--------------2-------6--------------2-|
E|--------------------------------------------|
B|------0-x--------0---x---x---0-x--------0---|

G|-----------------------------------------|
D|----------2--4/5--------------2h3-2--4/5-|
A|----6--------------2----6----------------|
E|-----------------------------------------|
B|------0-x--------0---x----0-x----x---x---|

Verso
Me enamore...
G|------------------------|derrepente hay una variasiones.
D|------------------------|son faciles.. puros slides
A|----------------5h7p5h7-|pero me da paja escribirlas.
E|-0-0--5-5--7-7----------|
B|------------------------|

Coro:tokar las veses k sea nesesario
G|---------------------------|
D|---------------------------|
A|----0--2-------0--2-----x--|
E|-0----------0--------------|
B|--------------------x------|

Pre verso
G|--------------------------------------------|
D|----------2--4/5-----------------2--4/5-----|
A|-4--6--------------2-------6--------------2-|
E|--------------------------------------------|
B|------0-x--------0---x---x---0-x--------0---|

G|-----------------------------------------|
D|----------2--4/5--------------2h3-2--4/5-|
A|----6--------------2----6----------------|
E|-----------------------------------------|
B|------0-x--------0---x----0-x----x---x---|

Verso
Energetika...
G|------------------------| = k el otro verso.. kon los mismas weas
D|------------------------|
A|----------------5h7p5h7-|
E|-0-0--5-5--7-7----------|
B|------------------------|

Coro:tokar las veses k sea nesesario
G|---------------------------|
D|---------------------------|
A|----0--2-------0--2-----x--|
E|-0----------0--------------|
B|--------------------x------|


Interludio
Y lo mejor de todo..
G|----------------------------|
D|----------------------------|el bajo usa una kuestion rara
A|----------------------------|
E|-0-0-0-0-0--0-0-0-0-0-0-0-0-|
B|----------------------------|

Final
G|--------------------|varias veses
D|--------------------|
A|------0-0--2-2--5-5-|
E|-0-0----------------|
B|--------------------|

y en la ultima

G|-----------------------|
D|-----------------------|
A|----0--2--3-4--5-6-7---|
E|-0-------------------0-|
B|-----------------------|

Adios..;)
Suggest correction
Give kudos to tab author, rate the tab!
1 2 3 4 5
comments
print report bad tab
guest
You may want to rate the tab now too:
select rating
Wanna post a correction for this tab? Suggest correction