Oops, an error
Loading. Please wait.

Mujer Robusta Tab

229 views 1 this week
no commentswrite comment
1 2 3 4 5
3 more votes to show rating
add to favorites
launch autoscroll
font size
0
reset
how to read this tab
guitar tuner
Autoscroll
slow
fast
+/-
esc
set tempo
stop
Intro
(aki empieza la guitarra pero entremiedio el bajo toka esto)

G|---------7h9^-|
D|--------------|
A|--------------|
E|--------------|
B|---3~---------|
           p p

(aki el bajo se mete kon todo)
* esta parte se toka kon slap
G|-----------------------------------------|
D|----------2--4/5--------------2--4/5-----|
A|-4--6--------------2----6--------------2-|
E|-----------------------------------------|
B|------0-x--------0---x----0-x--------0---|

G|-----------------------------------------|
D|----------2--4/5--------------2h3-2--4/5-|
A|----6--------------2----6----------------|
E|-----------------------------------------|
B|------0-x--------0---x----0-x------------|

Verso
(aki se toka normal, sin slap)
Me enamore...
G|------------------------| se toka lo mismo todo el rato, pero derrepente
D|------------------------| hay unas variaciones...
A|----------------5h7p5h7-|
E|-0-0--5-5--7-7----------|
B|------------------------|

(variaciones del verso)
G|---------------------12p9---|   |----------------12\3-|ustede deai le dan
D|----------------7/12--------|   |---------------------|el orden nesesario
A|----------------------------|   |---------------------|
E|-0-0--5-5--7-7--------------|   |-0-0--5-5--7-7-------|
B|----------------------------|   |---------------------|

Coro:*tocar kon slap

G|-----------------------|x4
D|-----------------------|
A|-----------------------|
E|-----------------------|
B|-0--5--7----0--5--7--x-|

Post-Coro
*  tokar kon slap
G|-----------------------------------------|
D|----------2--4/5--------------2--4/5-----|
A|----6--------------2----6--------------2-|
E|-----------------------------------------|
B|------0-x--------0---x----0-x--------0---|

G|-----------------------------------------|
D|----------2--4/5--------------2h3-2--4/5-|
A|----6--------------2----6----------------|
E|-----------------------------------------|
B|------0-x--------0---x----0-x------------|

Verso
Energetika...
G|------------------------| se toka lo mismo todo el rato, pero derrepente
D|------------------------| hay unas variacones...
A|----------------5h7p5h7-|
E|-0-0--5-5--7-7----------|
B|------------------------|

(variaciones del verso)
G|---------------------12p9---|   |----------------12\3-| |--------------------|
D|----------------7/12--------|   |---------------------| |--------------------|
A|----------------------------|   |---------------------| |--------------------|
E|-0-0--5-5--7-7--------------|   |-0-0--5-5--7-7-------| |-0-0--5-5--7-7------|
B|----------------------------|   |---------------------| |-----------------0~-|

Coro:*tocar kon slap

G|-----------------------|x4
D|-----------------------|
A|-----------------------|
E|-----------------------|
B|-0--5--7----0--5--7--x-|

Interludio
(aki el bajo usa una kuestion rara... nose muy bien komo se toka.. si alguien puede
 k la mande po)

Y lo mejor de todo...
G|--???????????????????--|pa reemplazar esta parte se kieren, puden tokar
D|--???????????????????--|el mi de la cuarta cuerda(al aire)varias veces
A|--???????????????????--|y = salva un poko pa no dejar el pedazo sin bajo
E|--???????????????????--|
B|--???????????????????--|

Outro
G|-----------------------|x7
D|-----------------------|
A|-----------------------|
E|-------------55--------|
B|-00--55--77------------|

(y la ultima vez se toka esto)
G|------------------------|
D|------------------------|
A|------------------------|
E|------------------------|
B|-0--5--7-8-9--11-12-13-0|

ya po, hay ta la cancion en bajo, no se si sea asi en verdad, pero asi = suena bien,
eso si en los versos tienen k ordenar las variaciones k les di.. y derrepente salen
otras, pero son kasi = asi k no las inclui, pongale arto color en el verso e improvisen
derrepente po. Yapo, ojala q les guste, sobretodo el intro y el post coro, q son las
mejores partes de esta cancion... saludo al niko, y a todos mis amigos...  CHAUS

PD: si alguien puede k mande una correccion kon el interludio, k nose komo xuxa se toka,
    y si sakan el mail, en buena ya k tengo 14 años no mas... yia chaus
Suggest correction
Give kudos to tab author, rate the tab!
1 2 3 4 5
comments
print report bad tab
guest
Wanna post a correction for this tab? Suggest correction