Oops, an error
Loading. Please wait.

Pacman Bass

2,793 views 18 this week
no commentswrite comment
1 2 3 4 5
2 more votes to show rating
add to favorites
launch autoscroll
font size
0
reset
guitar tuner
×
Best way to learn
"Pacman"
Autoscroll
slow
fast
+/-
esc
set tempo
stop
Otra Canción para los sinérgicos
Pacman... una mañana de desocupe y salió
Nada del otro mundo, pura diversión


Intro x8
G------------------------------------|
D-----16-----14/20--14----16--------o|
A--14----15------------14----15-----o|
E------------------------------------|


Parte A
G--------16--16-----17--17------16--16-------------16---|
D-----------------------------------------14-15-16------|
A------14--14--14--15--15-15--14--14--14----------------|
E-1/9---------------------------------------------------|


Coro x4 ¡Pacman!
G------------------------------------|
D-----------------------------------o|
A--2-2-x-2--3-3-x-3-----------------o|
E-------------------2~---------------|


Pre-Twist
  x3               x3
G-----|-------------------------------|
D-6---|------------------------------o|
A-----|--10h11-11-11-11-11-11-11-----o|
E-----|-------------------------------|


¡¡TWIST!! X3             CAMIBO X1
G--------------------|--------------12-12-12-12--|
D-----------10-13-13-|--13-13-13-13-------------o|
A--11-11-11----------|--------------------------o|
E--------------------|---------------------------|


Me da pereza colocar cuantas veces cada parte... allá ustedes
No olviden que al final el Twist varía en ritmo pero las notas siguen siendo las
mismas, ahh y otra cosa, en la segunda parte del pre-twist hay un último pedazo
en el que no encuentro bien las notas... ya ustedes las encontrarán, paciencia.

Esta no se la dedico a Ana Rivera... ¿por qué? porque sí y ya... que me pregunte
si quiere saberlo

bueno mucha persistencia

Ahí los dejo sigan tocando
Suggest correction
Give kudos to tab author, rate the tab!
1 2 3 4 5
comments
print report bad tab
guest
You may want to rate the tab now too:
select rating
Wanna post a correction for this tab? Suggest correction