Oops, an error
Loading. Please wait.

Santiago Usa Tab

11 views 1 this week
no commentswrite comment
1 2 3 4 5
3 more votes to show rating
add to favorites
launch autoscroll
font size
0
reset
how to read this tab
guitar tuner
×
Best way to learn
"Santiago USA"
Autoscroll
slow
fast
+/-
esc
set tempo
stop
Intro:

E----------------------------------------
B----------------------------------------
G-------------------------11-------------
D-------------11-13-11-------13-11h13p11-
A-------11-13----------13----------------
E-11-13----------------------------------

E------------------------------------
B------------------------------------
G------------------------------------
D-------------11-13-11---------------
A-------11-13----------13-11~10~11~~-
E-11-13------------------------------

E---------------
B---------------
G---------------
D---------------
A-6-6--6-6--6-6-
E-6-6--6-6--6-6-

E-9-
B-8-
G-9-
D-7-
A---
E---

E-9-|-7-|-5-|-3-
B-8-|-6-|-4-|-2-
G-9-|-7-|-5-|-3-
D-7-|-5-|-3-|-1-
A---|---|---|---
E---|---|---|---

Estrofa:
E------------------------
B------------------------
G-6-6-6-6-6-5-3----------
D---------------6-6--6-6-
A------------------------
E------------------------

E------------------------
B------------------------
G-6-6-6-6-6-5-3----------
D---------------6---6----
A-----------------6------
E------------------------

E------------------------
B------------------------
G-6-6-6-6-6-5-3----------
D---------------6-6--6-6-
A------------------------
E------------------------

E------------------------
B------------------------
G-6-6-6-6-6-5-3--------3-
D---------------6-6-6----
A------------------------
E------------------------

Coro:
E-12-12-12-12-12-12-12-12-12-
B-13-13-13-13-13-13-13-13-13-
G--X--X--X--X--X--X--X--X--X-
D----------------------------
A----------------------------
E----------------------------

E-------------------------------------
B-------------------------------------
G---4~--3~--2~--1~--------------------
D-6~--5~--4~--3~-----5~--4~-----------
A------------------7~--6~---6-6-6-6-6-
E---------------------------6-6-6-6-6-

Se repite Estrofa y coro...
Aqui va esto:
E---|---|---
B---|---|---
G---|---|---
D---|---|---
A-4-|-6-|-7-
E-2-|-4-|-5-

Despues de eso va esto:
E---|---|---|---
B---|---|---|---
G---|---|---|---
D---|---|---|---
A-9-|-7-|-5-|-3-
E-7-|-5-|-3-|-1-

Se repite estrofa y coro...

Outro:
E----------------------------------------
B----------------------------------------
G-------------------------11-------------
D-------------11-13-11-------13-11h13p11-
A-------11-13----------13----------------
E-11-13----------------------------------

E-------------------------
B-------------------------
G-------------------------
D-------------11-13-11----
A-------11-13----------13-
E-11-13-------------------

E-----------
B-----------
G-----------
D-----------
A-6-6--6-6--
E-6-6--6-6--
Suggest correction
Give kudos to tab author, rate the tab!
1 2 3 4 5
comments
print report bad tab
guest
You may want to rate the tab now too:
select rating
Wanna post a correction for this tab? Suggest correction