Oops, an error
Loading. Please wait.

Sopaipillas Con Mostaza Tab

123 views 1 this week
no commentswrite comment
1 2 3 4 5
3 more votes to show rating
add to favorites
launch autoscroll
font size
0
reset
how to read this tab
guitar tuner
Autoscroll
slow
fast
+/-
esc
set tempo
stop
Help us to improve Ultimate-Guitar.com Take our survey!
×
Aqui va este supertema
ojala que lo disfruten

INTRO

E-----------------------
B-----------------------
G-----------------------
D-----------------------
A-5-3-------------------
E-----5-3-3-3-3-3-3-3-5-

E-------------------
B-------------------
G-------------------  X8
D-------3-----------
A-5-5-5---5-----3-3-
E-----------5-5-----
(Esta parte va también en el verso)

CORO

FA#m-FAm-FA#m-FAm-FA#m-FAm
Yo solo tengo para ofrecer...
DO#-DO
Sopaipilla con mostaza...

E-----------------------
B-----------------------
G-----------------------
D-----------------------
A-5-3-------------------
E-----5-3-3-3-3-3-3-3-5-

E-------------------
B-------------------
G-------------------  X8
D-------3-----------
A-5-5-5---5-----3-3-
E-----------5-5-----

VERSO
SOL#m-FA#m-SOL#m-FA#m
E-------------------
B-------------------
G-------------------
D-------3-----------
A-5-5-5---5-----3-3-
E-----------5-5-----
(Esto se repite todo el rato)

CORO

FA#m-FAm-FA#m-FAm-FA#m-FAm
Yo solo tengo para ofrecer?
DO#-DO
Sopaipilla con mostaza?

E---------------------------
B---------------------------
G---------------------------
D---------------------------
A-5-3-----------------------
E-----5-3-3-3-3-3-3-3-5---6-

E-----------------------------
B-----------------------------
G-----------------------------
D-----------------------------
A-----------------------------
E-3-3-4-5-4-3-3-4-5-4-3-3-4-5-

E-5-5-6-6h7-6-5-5-6-6h7-6-5-5-6-6h7-6-5-6-
B---------------------------------------6-
G---------------------------------------6-
D---------------------------------------8-
A---------------------------------------8-
E---------------------------------------6-
(el ultimo acorde se toca 1 vez por cada ?ñam?)
mmmm...ñam...

OJO que el Do del coro es
   E A D G B E
Do 3 3 5 5 5 3

Eso es todo? asi que a comer sopaipillas con mostaza!!
Suggest correction
Give kudos to tab author, rate the tab!
1 2 3 4 5
comments
print report bad tab
guest
You may want to rate the tab now too:
select rating
Wanna post a correction for this tab? Suggest correction