Oops, an error
Loading. Please wait.

Razor Blade Salvation Tab

version 1
version 1

Solo

Whole song

1,334 views 1 this week
1 commentread comment
1 2 3 4 5
excellent!
x 1
add to favorites
launch autoscroll
font size
0
reset
how to read this tab
guitar tuner
Tab Pro tools
  • play this tab
  • loop segment
  • change instrument
  • show fretboard
  • metronome
Autoscroll
slow
fast
+/-
esc
set tempo
stop
Contributor
Difficulty
intermediate
-----------------------------------------------------------------
Razorblade Salvation - Sinergy
-----------------------------------------------------------------
Tabbed by: I would love to take credit for tabbing it out but it was really my guitar 
when I was learning it, so props go to him.
Email: O00Coolzero00O@gmail.com

Tuning:(C#-F#-B-E-G#-c#)Step and a half down

Notes:
*All chords names are relative to the key of standard
*Listen to the song for the timing, and i know this tab is 100% correct.
*The Fills can be played by a second guitar and sound pretty awesome when it is.

| /  slide up
| \  slide down
| h  hammer-on
| p  pull-off
| ~  vibrato
| +  harmonic
| x  Mute note
| t  Trill
in  E-min  G-maj  B-Maj  B-Maj(bar)  C-Maj C-Maj(bar) F-Maj(bar)G-Maj(bar)

m-----------------------------------------------------------------------------|
A-----------------------------------------------------------------------------|
c#|-1-------0-------3------2------7------------0-------3--------1----------3--|
G#|-2-------0-------3------3------7------------1-------5--------1----------3--|
_E|-2-------0-------0------3-----10------------0-------5--------2----------4--|
_B|-0-------2-------0------3------9------------2-------5--------3----------5--|
F#|-0-------2-------2------2------9------------3-------3--------3----------5--|
C#|---------0-------3-------------7-----------------------------1----------3--|

   D-min(bar) A-min(bar) Bb-Maj(C#bar) C-Maj(C#bar) Bb-maj(bar)
c#|--5-----------5---------6------------------8--------1------------|
G#|--6-----------5---------6------------------8--------3------------|
E |--7-----------5---------7------------------9--------3------------|
B |--7-----------7---------8-----------------10--------3------------|
F#|--5-----------7---------8-----------------10--------1------------|
C#|--------------5---------6------------------8---------------------|


***Intro/Main Riff***

A-min|E-min|G-maj|G-maj|

A-min|E-Min|B-Maj|B-maj|

A-min|E-min|G-Maj|G-Maj(Fill 1)|

   Fill 1
   c#|---------------|
   G#|--4h5-/7-------|
   E |---------------|
   B |---------------|
   F#|---------------|
   C#|---------------|

A-min|E-min|B-Maj|B-Maj(Fill 2)|

   Fill 2
   c#|-12-11---------------|
   G#|-------14-12-13------|
   E |---------------------|
   B |---------------------|
   F#|---------------------|
   C#|---------------------|

A-min|E-min|G-Maj|G-Maj(fill 3)|

   Fill 3
   c#|---------------------|
   G#|--4h5-/7---8---8---5-|
   E |-------------7---7---|
   B |---------------------|
   F#|---------------------|
   C#|---------------------|

A-min|E-min(Fill 4)|B-Maj|B-Maj|

   Fill 4
   c#|------------------------------11------|
   G#|----/12----12--------12----14----12---|
   E |-----------11-----11----11------------|
   B |--------------------------------------|
   F#|--------------------------------------|
   C#|--------------------------------------|

A-min|E-min|F-Maj|C-Maj|

A-min|E-min|F-Maj|xxxxx|
 *(mute all the strings and strike them normally like a chord)


***Chorus***
  The Mini fills are only played once in the chorus the first time through.


A-min|E-min|F-Maj|C-Maj|

A-min|E-min|F-Maj G-Maj(bar)|A-min|

 *For the F to G Transition use single strums play the F on a down stroke and
  the F on an upstroke)
 *play the F to G as 1,2 (play F on the 1 and G on the two no time between)

F-Maj|C-Maj|G-Maj(Bar)|G-Maj(bar)F-Maj|(mini fill 1)|

 *Multiple strums except on G to F transition(same as above, F to G)

    Mini Fill 1 (played rather quickly)
    c#|-1-0-----------|
    G#|---------------|
    E |---------------|
    B |---------------|
    F#|---------------|
    C#|---------------|

(Minifill 2) D-min bar|A-min|Bb-Maj(c#bar) C-Maj(C#bar)|

     *Bb-Maj to C Maj Transition is the same as the previous transitions like
     G to F.

    Mini Fill 2
    c#|---------------|
    G#|---------------|
    E |---------------|
    B |--7h8----------|
    F#|---------------|
    C#|---------------|

Bb-Maj(bar)|F-Maj|C|C-Maj Bb-Maj(bar)|


***Main Riff(2nd time)***

A-min|E-min|G-Maj|G-Maj(fill 5)|

   Fill 5
   c#|---------------|
   G#|---------------|
   E |---------------|
   B |---------------|
   F#|-3-2--0--------|
   C#|---------------|

A-min|E-min|B-Maj|B-Maj(fill 6)

   Fill 6
   c#|---------------|
   G#|---------------|
   E |---------------|
   B |---7-5-4-5-4---|
   F#|---------------|
   C#|---------------|


A-min|E-min|B-Maj|B-Maj(fill 7)

   Fill7
   c#|---------------|-----------------------------11---------------------|
   G#|-0--8----------|--3/5h8p8------13-12------------12------------------|
   E |------9--------|----------------------12-11-------------------------|
   B |---------------|----------------------------------------------------|
   F#|---------------|----------------------------------------------------|
   C#|---------------|----------------------------------------------------|
   For the 8th fret on the G# choke the note ( use the right hand and mute
   the other strings and ghost strum it once to hit note, then unmute the
   strings and play the 9 on the E)


***Chorus 2nd time***

A-min|E-min|F-Maj|C-Maj|

A-min|E-min|F-Maj G-Maj(bar)|A-min|

F-Maj|C-Maj|G-Maj(Bar)|G-Maj(bar)F-Maj|

D-min bar|A-min|Bb-Maj(c#bar) C-Maj(C#bar)|D-min|

Bb-Maj(bar)|F-Maj|C-Maj|C-Maj Bb-Maj(bar)|C-Maj|C-MajBb-Maj(bar)(mini-fill3)|

    Mini-fill 3
    c#|---------------|
    G#|-5-6-----------|
    E |---------------|
    B |---------------|
    F#|---------------|
    C#|---------------|


***Interlude***

c#|----------------------------------------------------------------10-----------------------------|
G#|-------------------------------------------------------------------11-13p11p10-----------------|
_E|--7-9--10-10p9p7---9----9-10-12-12p10p9--10-12-14--14p12p10-12------------------12p10p9--------|x2
_B|---------------------10------------------------------------------------------------------------|
F#|-----------------------------------------------------------------------------------------------|
C#|-----------------------------------------------------------------------------------------------|

c#|------------------------------------------------------------------12---------------------------|
G#|---------------------------------------------------------------------13-15p13p12---------------|
_E|-9-11-12-12p11p9---11----11-12-14-14p12p11--12-14-16--16p14p12-14----------------14p12p11------|
_B|----------------------12-----------------------------------------------------------------------|x2
F#|-----------------------------------------------------------------------------------------------|
C#|-----------------------------------------------------------------------------------------------|


End on B-Maj(Bar)


***Solo***

c#|--*14b15--~14~-b15-------------------------------15----14--12-------22---------------------22----------|
G#|-------------------12h15-15b17--15--12h15p12------12--------12-------19b22**---20--22b24-----22b24-----|
_E|-----------------------------------------------------14------------------------------------------------|
_B|-------------------------------------------------------------------------------------------------------|
F#|-------------------------------------------------------------------------------------------------------|
C#|-------------------------------------------------------------------------------------------------------|

                                                                            (Play Stacatto)
c#|-----------12------------------------|-12------12----------15--------22--------------------------------------------|
G#|--------12----15-----------12--------|-12--15-----15-15b17-----22b24-----(22b24-22b24-22b24-22b24-22b24-22b24)-----|
_E|-*15b17----------15b17**-----15b17---|-----------------------------------------------------------------------------|
_B|-------------------------------------|-----------------------------------------------------------------------------|
F#|-------------------------------------|-----------------------------------------------------------------------------|
C#|-------------------------------------|-----------------------------------------------------------------------------|

c#|-----------------------------------------------------------------------------------------------------------------------------------------|
G#|--***22b24p20p17---22-***22b24p20p17------22b24---20t20-20t22-20t22--20t22-------------------------------------------------11-11-11-11h12|
_E|-----------------------------------------------------------------------------------------------------------------------------------------|
_B|------------------------------------------------------------------------------**7b9--4--------------9---7-9-9-9b11--7h9p7----------------|
F#|----------------------------------------------------------------------------------------5-**5b7-------9----------------------------------|
C#|-----------------------------------------------------------------------------------------------------------------------------------------|

 *mute after bending up
**After bending up bring it back down
***After bending up bring it back down then pluck it when it returns to the
original note you plucked


***Repeat the 2nd Chorus***

***Outro***

        D-min       E-min7         F-Maj            G5
c#|-------------------------7-----------------8----------------------------------|
G#|--------6--------------8---8------------10---10--------11--10h11p10-----------|
_E|----7-----7---------7--------7------10-------------------------------12-10-9--|x2
_B|------7-----7-----9---9----------10---10------------12------------------------|
F#|--5-------------7--------------8-----------------10---------------------------|
C#|------------------------------------------------------------------------------|

End on (after second time):

                        D-min(bar)
c#|---------------------------5---------------------------|
G#|--------------------------6----------------------------|
_E|-7-6---------------------7-----------------------------|
_B|-----8-7--5------------7-------------------------------|
F#|------------8-7-5-4--5---------------------------------|
C#|-------------------------------------------------------|
comments
We did not receive enough feedback on this tab! Please rate:
print report bad tab
1 2 3 4 5
1 comment total.
0 reply
o0Melt0Down0o wrote on April 4 2007, 05:14 pm

This tab is great, I could understand all of it, it was very informative except for the margin mistake. This mistake I later found out was edited into the tab by U.G. with the exception of that margin mistake the tab is flawless.

I want to post or [tab]
guest
You may want to rate the tab now too:
select rating
Please do not post tabs as comments. Select "correction" instead!