Oops, an error
Loading. Please wait.

A Beautiful Sea chords

5,866 views 171 this week
1 commentread comment
1 2 3 4 5
x 17
add to favorites
×
Save as Personal and add changes to this tab that will be seen only by you. Learn more ›
×
You can save this tab as Personal to edit and correct it or add notes. All changes will be seen only by you. Learn more »
launch autoscroll
font size
0
reset
transpose
0
reset
simplify chords
display chords
guitar tuner
edit
Autoscroll
slow
fast
+/-
esc
set tempo
stop
Author
Difficulty
About this tab version
Well i tried to make this tab with the purpose of sounding like the song. Was this info helpful? Yes No
Strumming Is this strumming pattern correct? Yes No
Verse 170 bpm
1
 
&
 
2
 
&
 
3
 
&
 
4
 
&
 
Listen
[Intro]
E|----------------------------------------------------------|
B|--------8----8-----8---8----8------8---8----10----9-----9-|
G|----7-----7----------------------7---7---------7----7-----|
D|--9----9--------9---9---9-----9-----9-----------7-----7---| (x2)
A|----------------------------------------------------------|
E|----------------------------------------------------------|

G/Bm7/Cadd9

[Verse 1]
G          Bm7   
Fake deals in the supermarket,
Cadd9
Tv's selling what you can get
G          Bm7                    Cadd9  
She laughs "Nowhere as pretty as this"                   
G         Bm7                   
Gray cars crawling in the slow lane
Cadd9
Lost stars waiting for the DART train
G              Bm7                     Cadd9
She smiles, turns, and blows the city a kiss

[Chorus]
Cadd9                            G   
Under the waves I feel her pull my body down
Cadd9                                    G   
Under the wind she takes me where I wanna drown
Cadd9                            Bm7   Am7
I can be miles away, she calls to me
                   G         Bm7                     Cadd9
This girl is a beautiful sea

E|----------------------------------------------------------|
B|--------8----8-----8---8----8------8---8----10----9-----9-|
G|----7-----7----------------------7---7---------7----7-----|
D|--9----9--------9---9---9-----9-----9-----------7-----7---| 
A|----------------------------------------------------------|
E|----------------------------------------------------------|

[Verse 2]
G                Bm7                   
Freeze Frame, graffiti at the bus stop
Cadd9
Star Wars, chewing gum, and punk rock
G               Bm7                             Cadd9
She says "What d'you say we give this a miss?"

G        Bm7                   
Let's go, take me where the wind blows
Cadd9
Sail ships far into tomorrow
G       Bm7                         Cadd9
We can turn and blow the city a kiss

[Solo]
E|-----------------------------------------10-10--8-8--7-7---------------------------------|
B|-----------------10-----------------15--------------------10-10--8-8--7--8--7--8--7------|
G|----12-(x4)-10-------12(x4)---10---------------------------------------------------------|
D|--------------12------------------12------------------------------------------------7-9--| 
A|-----------------------------------------------------------------------------------------|
E|-----------------------------------------------------------------------------------------|

[Chorus]
Cadd9                             G  
Under the waves I feel her pull my body down
Cadd2                                   G  
Under the wind she takes me where I wanna drown
Cadd2                              Bm7    Am7
I can be miles away, she calls my name
Bm7                     Am7
She gets into my veins
Bm7                   Am7
And writes my poetry
G           Cadd9
This girl is a beautiful sea
Cadd9           G
The girl is a beautiful sea
G               Cadd9
This girl is a beautiful sea
Cadd9            G
The girl is a beautiful sea

            
            
Suggest correction
Creating personal tab
Creating personal tab
You can edit any tab online and save it as your Personal.

You can edit, replace or remove any tab part or add personal notes – all changes will be seen only by you.

Personal tabs can be accessed anytime from any device, even offline.
Learn more »
comments
print report bad tab
1 comment total.
0 reply
jciskanik 10 Oct 11, 2017 11:34 AM

Watched Sing Street. Loved the song. Wanted to learn it

guest
You may want to rate the tab now too:
select rating
Wanna post a correction for this tab? Suggest correction