Oops, an error
Loading. Please wait.

To Find You tab

version 1
version 1

Whole song

  • I think it's the most accurate with original than ... Show more
  • I think finger-picking this song makes all the dif... Show more
265 views 15 this week
no commentswrite comment
1 2 3 4 5
3 more votes to show rating
add to favorites
×
Save as Personal and add changes to this tab that will be seen only by you. Learn more ›
×
You can save this tab as Personal to edit and correct it or add notes. All changes will be seen only by you. Learn more »
launch autoscroll
font size
0
reset
how to read this tab
guitar tuner
edit
Autoscroll
slow
fast
+/-
esc
set tempo
stop
About this tab version
I think it's the most accurate with original than other tabs. I'm sue it's not perfect but surely the best available. Was this info helpful? Yes No
Artist: Sing Street
Song: To Find You
Tab: Jarekmazurr

Tuning: Standard
Capo: 2

[Intro]                       [Verse 1]
        G             G         G         Bm7           Em  F#m   C        
e|---------------------------------------------------------------------|
B|-------3--------------3-------0----------3-------------0-------1-----|
G|-----0-------2------0---2-----0----------2-------------0---2---0-----|
D|---0--------------0-----------0------------------------2-------2-----|
A|-----------------------------------------2-------------2-------3-----|
E|-3--------------3-------------3----------------------------2---------|
                              You were staring at your bedroom wall 

  G        Bm7       Em       C             G      Bm7              Em     F#m
e|-----------------------------------------------------------------------------|
B|--0--------3------3------0---------------0--------3-----------------0--------|
G|--0--------2------0------0-------0-------0--------2----------------0-------2-|
D|--0--------------------------------------0------------------------2----------|
A|-----------0-------------3-----3------------------0--------------2-----------|
E|--3---------------0----------------------3---------------------------------2-|
 With only ghosts beside you          Somewhere out where the wind was calling

        C        F#m        Em                     C     F#m              G 
e|------------------------------------|------------------------------------------|
B|------1------0------------0-------0-|---------------------0--------------3-----|
G|------0----0----2--------0----------|------------0-------0--------------0--2-0-|
D|----------------4-------2-----------|-------------------0-----4--------0-------|
A|------3----0-----------2------------|------------3--3--------------------------|
E|------------------------------------|-----------------3---------------3--------|
  I was on my way to find you               I was on my way to find you

[Verse 2]                   
   G                 G         Bm7           Em   F#m   C          G        Bm7
e|--------------------------------------------------------------------------------|
B|----3----------------0---------3------------0--------1-----------0---------3----|
G|---0--2--------------0---------2------------0---2----0-----------0---------2----|
D|--0------4-5---------0----------------------2--------2-----------0--------------|
A|-------------------------------2------------2--------3---------------------0----|
E|-3-------------------3--------------------------2----------------3--------------|
                When you were racing like a cannonball          In roller skates 

   Em     C            G        Bm7             Em              F#m
e|----------------------------------------------------------------------|
B|---3-----0------------0-------- 3---------------0---------------------|
G|---0-----0------------0---------2--------------0----------------2-----|
D|--------------------- 0---------------------- 2-----------------------|
A|---------3----------------------2------------2------------------------|
E|---0------------------3-----------------------------------------2-----|
  and sky blue      Or in the backseat watching the slow rain falling

       C      F#m         Em                       C       F#m         G
e|-------------------------------------|-----------------------------------------|
B|------1------0------------0-------0--|--------------------0------------------3-|
G|------0----0----2--------0-----------|-----------0-------0------------0--------|
D|----------------4-------2------------|------------------0-----4----------------|
A|------3----0-----------2-------------|-----------3--3---------------------0----|
E|-------------------------------------|----------------3---------------3------3-|
I was on my way to find you               I was on my way to find you

[Chorus]
   Am                           Em       D        Am                  Em   G
e|---------------------------------------2--|-------------------------------------|
B|--1---------------------------0-------3---|------1------------------------------|
G|--2-------------2------------0-------2----|---------------2--------0---0---0----|
D|--------------2---2---------2-------0-----|-----2-------2---2------2---0---0--4-|
A|--0---------0--------------2--------------|----0------0------------2---2---0----|
E|------------------------------------------|------------------------0---3--------|
    I gotta find out who I'm meant to be       I don't belive  in  destiny

    Am                        Em   Fm      Emaj7Sus4                   Em       C#m
e|--------------------------------------|---------------------------------------------|
B|--1-------------------------0---------|----0---------------------------0---0---0----|
G|--2-------------2----------0-----1----|----2------------2-------------0----2---0----|
D|--------------2---2-------2-----------|----1--------- 1------------- 2---------2----|
A|--0---------0------------2-------3----|----2--------2---2-----------2------0---4----|
E|--------------------------------------|---------------------------------------------|
    But with every word you swear to me    All my beliefs start caving in

     C/G  D/A G/B   Gsus4                         F#m
e|----------------------------------------------------------------------------|
B|---------------------3-----------3-----0------------------------------------|
G|------0--------------5---------5-------0----------2-------------------------|
D|-----2----4----5-----5-------5---------0-------0----------------------------|
A|---------------------------0-----------0------0-----------------------------|
E|----3-----5----7----------------------------------0-------------------------|
  And I feel something's             about to change

[Verse 3]
 G         Bm7             Em   F#m C     
e|----------------------------------------|
B|-0-----------3------------0-------1-----|
G|-0-----------2------------0---2---0-----|
D|-0------------------------2-------2-----|
A|-------------2------------2-------3-----|
E|-3----------------------------2---------|
 So bring the lightning, bring the fire, bring the fall

  G        Bm7      Em       C             G      Bm7              Em     F#m
e|-----------------------------------------------------------------------------|
B|--0--------3------3------0---------------0--------3-----------------0--------|
G|--0--------2------0------0-------0-------0--------2----------------0-------2-|
D|--0--------------------------------------0------------------------2----------|
A|-----------0-------------3-----3------------------0--------------2-----------|
E|--3---------------0----------------------3---------------------------------2-|
 I know I'll get my heart through     Got miles to go but from the day I started crawling

      C        F#m       Em                     C     F#m   Em
e|---------------------------------------------------------------------|
B|------1------0------------0-------0----------------------0-----------|
G|------0----0----2--------0----------------------0-------0------------|
D|----------------4-------2------------------------------0-----4-------|
A|------3----0-----------2------------------------3--3-----------------|
E|-----------------------------------------------------3---------------|
I was on my way to find you               I was on my way everyday

      C        C#m            G                    
e|--------------------------|----------------------------|
B|---------------0----------|----3----------3----------0-|
G|------0-------0-----------|---0--2-------0--2-------0--|
D|-------------0-----4------|--0----------0-----4----0---|
A|------3--3----------------|----------------------------|
E|-----------3--------------|-3----------3---------3-----|
I was on my way to find you         

            
            
Suggest correction
Creating personal tab
Creating personal tab
You can edit any tab online and save it as your Personal.

You can edit, replace or remove any tab part or add personal notes – all changes will be seen only by you.

Personal tabs can be accessed anytime from any device, even offline.
Learn more »
Give kudos to tab author, rate the tab!
1 2 3 4 5
comments
print report bad tab
guest
You may want to rate the tab now too:
select rating
Wanna post a correction for this tab? Suggest correction