Oops, an error
Loading. Please wait.

Hoy Voy A Asesinarte Bass Tab

55 views 1 this week
no commentswrite comment
1 2 3 4 5
3 more votes to show rating
add to favorites
launch autoscroll
font size
guitar tuner
set tempo
Help us to improve Ultimate-Guitar.com Take our survey!
G |-----------------------------|
D |-----------------1-----------|
A |---------0-4-0-2---2-0-4-----|
E |-0-2-4-0-----------------2---|

intro (solo una vez)

G |---------------------------------------|
D |---------------------------------------|
A |---------------------------------------|
E |-0-00-5-55-7-77-5-555-0-00-5-55--2-5-7-|
  Hoy voy a asesinarte nena te quiero pero no aguanto mas

G |---------------------------------------|
D |---------------------------------------|
A |---------------------------------------|
E |-0-00-5-55-7-77-5-555-0-00-5-55-2222222|
  Hoy voy a asesinarte nena no me volveras a engañar

G |------------------|
D |------------------|(x2)
A |------------------|
E |-5-55-0-00-777777-|
  El tendero te regala el coñac
  Y el lechero te da leche de verdad

G |---------------------|
D |---------------------|
A |-4-44------3-33-0000-|
E |------2-22-----------|
  Y tu te preguntas porque

G |------------------------------|
D |------------------------------|
A |-4-44-------------------------|
E |------2-22-3333333-5555555----|
  si lo hiciste con los dos antes de ayer

y asi se repite toda la rola asta el final
que son dos beses lo de hoy voi a asesinarte
Suggest correction
Give kudos to tab author, rate the tab!
1 2 3 4 5
print report bad tab
You may want to rate the tab now too:
select rating
Wanna post a correction for this tab? Suggest correction