Oops, an error
Loading. Please wait.

Vamos Muy Bien Chords

110 views 1 this week
no commentswrite comment
1 2 3 4 5
3 more votes to show rating
add to favorites
launch autoscroll
font size
0
reset
transpose
0
reset
display chords
guitar tuner
Autoscroll
slow
fast
+/-
esc
set tempo
stop
Help us to improve Ultimate-Guitar.com Take our survey!
×
  INTRO:

  A  B  A    A  B  C  |
                      |  x 4 
  A  B  C    C  G     |


  ESTROFA:

  A     B A       B     C
  Vamos amigo y bebe konmigo

  A  B     C               G
  akaba tu kopa que quiero más.

  A      B   A           B       C
  Hoy es una noche komo otra kualquiera

  A     B     C              G           D
  nadie nos espera solo unos litros de alkohol.

  A     B   A             B     C
  Todos dan vueltas hablo sin parar

  A      B   C                  G
  kuento mis penas a un viejo sofá.

  A        B    A          B      C
  Mi amigo ha salido tiene que evakuar

  A      B       C                     G        D
  dentro de un momento más litros de alkohol kaerán.


  ESTRIBILLO:

  D     C   B
  Vamos muy bien

  D                     C B
  borrachos komo kubas, y qué

  D                   C  B
  aun nos mantenemos, en pie

  D                                      C  B
  y ya no pararemos, hasta no poder ver.


  Aquí en el estribillo si lo preferís, podeís hecer un arpegio o punteo
  tokando estas notas, D C B A, en la eskala que queraís, 
  'Borrachos como kubas' en esa parte en vez de matener el akorde, 
  pero podeís hacer lo que queraís. 
  

  SOLILLO:

e|--------------------------------------------------------14--12- 
B|----15-14-12--------15-14-12-15-14-12---15-14-12---------------
G|-------------13----------------------------------13------------ 
D|---------------------------------------------------------------
A|---------------------------------------------------------------
E|---------------------------------------------------------------


e|-----------------------------------------------------------------14--12b- 
B|----15-14-12-15-14-12--------15-14-12-15-14-12---15-14-12----------------
G|----------------------13----------------------------------13-------------
D|-------------------------------------------------------------------------
A|-------------------------------------------------------------------------
E|-------------------------------------------------------------------------


  ESTROFA:

  A   B      A           B         C
  Veo dobles karas luces que andan solas

  A   B        C                 G
  maniquís que ríen mis bromas pesadas.

  A     B     A               B     C   
  Ya perdí la kuenta y habro otra botella

  A         B       C                    G         D
  siempre enkuentro algo por lo que esta noche brindar.

  A    B      A          B       C
  Tío eres mi amigo pues tira de mi

  A     B       C                    G
  no tiene importancia quien tira de quien.

  A   B      A              B     C
  Kalimotxo, whisky, birra, peppermint

  A      B       C                   G       D
  soy un koktail que anda y se tiene solo de pie.


  ESTRIBILLO:

  Hasta el final.


  La b del solo quiere decir bend, que si no me equivoko 
  signifika que tiremos de la palanca. Y por lo demás, que 
  es del disko del directo y no se komo es el de estudio a 
  si que si es diferente lo siento. Bueno pues si teneis 
  dudas, korrecciones, alabanzas y todo eso a mi direccion 
  HUGO_HENDRIX@ Pues bueno para ser el segundo
  espero que no esté mal, y este se lo quiero dedikar a 
  Agustín por ayudarme. Vale pos lo dicho.
Suggest correction
Give kudos to tab author, rate the tab!
1 2 3 4 5
comments
print report bad tab
guest
You may want to rate the tab now too:
select rating
Wanna post a correction for this tab? Suggest correction